  0
SECTION
  2
HEADER
  9
$ACADVER
  1
AC1018
  9
$ACADMAINTVER
 70
     0
  9
$DWGCODEPAGE
  3
ANSI_1252
  9
$INSBASE
 10
0.0
 20
0.0
 30
0.0
  9
$EXTMIN
 10
-1.375
 20
-7.25
 30
0.0
  9
$EXTMAX
 10
1.375
 20
18.17950230588236
 30
31.06400711546745
  9
$LIMMIN
 10
0.0
 20
0.0
  9
$LIMMAX
 10
12.0
 20
9.0
  9
$ORTHOMODE
 70
     0
  9
$REGENMODE
 70
     1
  9
$FILLMODE
 70
     1
  9
$QTEXTMODE
 70
     0
  9
$MIRRTEXT
 70
     1
  9
$LTSCALE
 40
0.0393700787401575
  9
$ATTMODE
 70
     1
  9
$TEXTSIZE
 40
0.2
  9
$TRACEWID
 40
0.05
  9
$TEXTSTYLE
  7
Standard
  9
$CLAYER
  8
0
  9
$CELTYPE
  6
ByLayer
  9
$CECOLOR
 62
   256
  9
$CELTSCALE
 40
1.0
  9
$DISPSILH
 70
     0
  9
$DIMSCALE
 40
1.0
  9
$DIMASZ
 40
0.18
  9
$DIMEXO
 40
0.0625
  9
$DIMDLI
 40
0.38
  9
$DIMRND
 40
0.0
  9
$DIMDLE
 40
0.0
  9
$DIMEXE
 40
0.18
  9
$DIMTP
 40
0.0
  9
$DIMTM
 40
0.0
  9
$DIMTXT
 40
0.18
  9
$DIMCEN
 40
0.09
  9
$DIMTSZ
 40
0.0
  9
$DIMTOL
 70
     0
  9
$DIMLIM
 70
     0
  9
$DIMTIH
 70
     1
  9
$DIMTOH
 70
     1
  9
$DIMSE1
 70
     0
  9
$DIMSE2
 70
     0
  9
$DIMTAD
 70
     0
  9
$DIMZIN
 70
     0
  9
$DIMBLK
  1

  9
$DIMASO
 70
     1
  9
$DIMSHO
 70
     1
  9
$DIMPOST
  1

  9
$DIMAPOST
  1

  9
$DIMALT
 70
     0
  9
$DIMALTD
 70
     2
  9
$DIMALTF
 40
25.4
  9
$DIMLFAC
 40
1.0
  9
$DIMTOFL
 70
     0
  9
$DIMTVP
 40
0.0
  9
$DIMTIX
 70
     0
  9
$DIMSOXD
 70
     0
  9
$DIMSAH
 70
     0
  9
$DIMBLK1
  1

  9
$DIMBLK2
  1

  9
$DIMSTYLE
  2
Standard
  9
$DIMCLRD
 70
     0
  9
$DIMCLRE
 70
     0
  9
$DIMCLRT
 70
     0
  9
$DIMTFAC
 40
1.0
  9
$DIMGAP
 40
0.09
  9
$DIMJUST
 70
     0
  9
$DIMSD1
 70
     0
  9
$DIMSD2
 70
     0
  9
$DIMTOLJ
 70
     1
  9
$DIMTZIN
 70
     0
  9
$DIMALTZ
 70
     0
  9
$DIMALTTZ
 70
     0
  9
$DIMUPT
 70
     0
  9
$DIMDEC
 70
     4
  9
$DIMTDEC
 70
     4
  9
$DIMALTU
 70
     2
  9
$DIMALTTD
 70
     2
  9
$DIMTXSTY
  7
Standard
  9
$DIMAUNIT
 70
     0
  9
$DIMADEC
 70
     0
  9
$DIMALTRND
 40
0.0
  9
$DIMAZIN
 70
     0
  9
$DIMDSEP
 70
    46
  9
$DIMATFIT
 70
     3
  9
$DIMFRAC
 70
     0
  9
$DIMLDRBLK
  1

  9
$DIMLUNIT
 70
     2
  9
$DIMLWD
 70
    -2
  9
$DIMLWE
 70
    -2
  9
$DIMTMOVE
 70
     2
  9
$LUNITS
 70
     2
  9
$LUPREC
 70
     2
  9
$SKETCHINC
 40
0.1
  9
$FILLETRAD
 40
0.5
  9
$AUNITS
 70
     0
  9
$AUPREC
 70
     0
  9
$MENU
  1
.
  9
$ELEVATION
 40
0.0
  9
$PELEVATION
 40
0.0
  9
$THICKNESS
 40
0.0
  9
$LIMCHECK
 70
     0
  9
$CHAMFERA
 40
0.5
  9
$CHAMFERB
 40
0.5
  9
$CHAMFERC
 40
1.0
  9
$CHAMFERD
 40
0.0
  9
$SKPOLY
 70
     0
  9
$TDCREATE
 40
2455776.401579549
  9
$TDUCREATE
 40
2455776.609912882
  9
$TDUPDATE
 40
2455776.40157956
  9
$TDUUPDATE
 40
2455776.609912894
  9
$TDINDWG
 40
0.0000000116
  9
$TDUSRTIMER
 40
0.0000000116
  9
$USRTIMER
 70
     1
  9
$ANGBASE
 50
0.0
  9
$ANGDIR
 70
     0
  9
$PDMODE
 70
     0
  9
$PDSIZE
 40
0.0
  9
$PLINEWID
 40
0.0
  9
$SPLFRAME
 70
     0
  9
$SPLINETYPE
 70
     6
  9
$SPLINESEGS
 70
     8
  9
$HANDSEED
  5
105
  9
$SURFTAB1
 70
     6
  9
$SURFTAB2
 70
     6
  9
$SURFTYPE
 70
     6
  9
$SURFU
 70
     6
  9
$SURFV
 70
     6
  9
$UCSBASE
  2

  9
$UCSNAME
  2

  9
$UCSORG
 10
0.0
 20
0.0
 30
0.0
  9
$UCSXDIR
 10
1.0
 20
0.0
 30
0.0
  9
$UCSYDIR
 10
0.0
 20
1.0
 30
0.0
  9
$UCSORTHOREF
  2

  9
$UCSORTHOVIEW
 70
     0
  9
$UCSORGTOP
 10
0.0
 20
0.0
 30
0.0
  9
$UCSORGBOTTOM
 10
0.0
 20
0.0
 30
0.0
  9
$UCSORGLEFT
 10
0.0
 20
0.0
 30
0.0
  9
$UCSORGRIGHT
 10
0.0
 20
0.0
 30
0.0
  9
$UCSORGFRONT
 10
0.0
 20
0.0
 30
0.0
  9
$UCSORGBACK
 10
0.0
 20
0.0
 30
0.0
  9
$PUCSBASE
  2

  9
$PUCSNAME
  2

  9
$PUCSORG
 10
0.0
 20
0.0
 30
0.0
  9
$PUCSXDIR
 10
1.0
 20
0.0
 30
0.0
  9
$PUCSYDIR
 10
0.0
 20
1.0
 30
0.0
  9
$PUCSORTHOREF
  2

  9
$PUCSORTHOVIEW
 70
     0
  9
$PUCSORGTOP
 10
0.0
 20
0.0
 30
0.0
  9
$PUCSORGBOTTOM
 10
0.0
 20
0.0
 30
0.0
  9
$PUCSORGLEFT
 10
0.0
 20
0.0
 30
0.0
  9
$PUCSORGRIGHT
 10
0.0
 20
0.0
 30
0.0
  9
$PUCSORGFRONT
 10
0.0
 20
0.0
 30
0.0
  9
$PUCSORGBACK
 10
0.0
 20
0.0
 30
0.0
  9
$USERI1
 70
     0
  9
$USERI2
 70
     0
  9
$USERI3
 70
     0
  9
$USERI4
 70
     0
  9
$USERI5
 70
     0
  9
$USERR1
 40
0.0
  9
$USERR2
 40
0.0
  9
$USERR3
 40
0.0
  9
$USERR4
 40
0.0
  9
$USERR5
 40
0.0
  9
$WORLDVIEW
 70
     1
  9
$SHADEDGE
 70
     3
  9
$SHADEDIF
 70
    70
  9
$TILEMODE
 70
     1
  9
$MAXACTVP
 70
    64
  9
$PINSBASE
 10
0.0
 20
0.0
 30
0.0
  9
$PLIMCHECK
 70
     0
  9
$PEXTMIN
 10
1.000000000000000E+20
 20
1.000000000000000E+20
 30
1.000000000000000E+20
  9
$PEXTMAX
 10
-1.000000000000000E+20
 20
-1.000000000000000E+20
 30
-1.000000000000000E+20
  9
$PLIMMIN
 10
0.0
 20
0.0
  9
$PLIMMAX
 10
12.0
 20
9.0
  9
$UNITMODE
 70
     0
  9
$VISRETAIN
 70
     1
  9
$PLINEGEN
 70
     0
  9
$PSLTSCALE
 70
     1
  9
$TREEDEPTH
 70
  3020
  9
$CMLSTYLE
  2
Standard
  9
$CMLJUST
 70
     0
  9
$CMLSCALE
 40
1.0
  9
$PROXYGRAPHICS
 70
     1
  9
$MEASUREMENT
 70
     0
  9
$CELWEIGHT
370
    -1
  9
$ENDCAPS
280
     0
  9
$JOINSTYLE
280
     0
  9
$LWDISPLAY
290
     0
  9
$INSUNITS
 70
     1
  9
$HYPERLINKBASE
  1

  9
$STYLESHEET
  1

  9
$XEDIT
290
     1
  9
$CEPSNTYPE
380
     0
  9
$PSTYLEMODE
290
     1
  9
$FINGERPRINTGUID
  2
{D2BF4C5B-B3E7-4C8B-BF66-1F234C4BEF28}
  9
$VERSIONGUID
  2
{FAEB1C32-E019-11D5-929B-00C0DF256EC4}
  9
$EXTNAMES
290
     1
  9
$PSVPSCALE
 40
0.0
  9
$OLESTARTUP
290
     0
  9
$SORTENTS
280
   127
  9
$INDEXCTL
280
     0
  9
$HIDETEXT
280
     1
  9
$XCLIPFRAME
290
     0
  9
$HALOGAP
280
     0
  9
$OBSCOLOR
 70
   257
  9
$OBSLTYPE
280
     0
  9
$INTERSECTIONDISPLAY
280
     0
  9
$INTERSECTIONCOLOR
 70
   257
  9
$DIMASSOC
280
     2
  9
$PROJECTNAME
  1

  0
ENDSEC
  0
SECTION
  2
CLASSES
  0
CLASS
  1
ACDBDICTIONARYWDFLT
  2
AcDbDictionaryWithDefault
  3
ObjectDBX Classes
 90
        0
 91
        4
280
     0
281
     0
  0
CLASS
  1
VISUALSTYLE
  2
AcDbVisualStyle
  3
ObjectDBX Classes
 90
     4095
 91
        4
280
     0
281
     0
  0
ENDSEC
  0
SECTION
  2
TABLES
  0
TABLE
  2
VPORT
  5
8
330
0
100
AcDbSymbolTable
 70
     1
  0
VPORT
  5
29
330
8
100
AcDbSymbolTableRecord
100
AcDbViewportTableRecord
  2
*Active
 70
     0
 10
0.0
 20
0.0
 11
1.0
 21
1.0
 12
0.0
 22
5.464751152941179
 13
0.0
 23
0.0
 14
0.5
 24
0.5
 15
0.5
 25
0.5
 16
0.0
 26
0.0
 36
1.0
 17
0.0
 27
0.0
 37
0.0
 40
25.93809235200001
 41
0.1081421085997373
 42
50.0
 43
0.0
 44
0.0
 50
0.0
 51
0.0
 71
     0
 72
   100
 73
     1
 74
     3
 75
     0
 76
     0
 77
     0
 78
     0
281
     0
 65
     1
110
0.0
120
0.0
130
0.0
111
1.0
121
0.0
131
0.0
112
0.0
122
1.0
132
0.0
 79
     0
146
0.0
  0
ENDTAB
  0
TABLE
  2
LTYPE
  5
5
330
0
100
AcDbSymbolTable
 70
     1
  0
LTYPE
  5
14
330
5
100
AcDbSymbolTableRecord
100
AcDbLinetypeTableRecord
  2
ByBlock
 70
     0
  3

 72
    65
 73
     0
 40
0.0
  0
LTYPE
  5
15
330
5
100
AcDbSymbolTableRecord
100
AcDbLinetypeTableRecord
  2
ByLayer
 70
     0
  3

 72
    65
 73
     0
 40
0.0
  0
LTYPE
  5
16
330
5
100
AcDbSymbolTableRecord
100
AcDbLinetypeTableRecord
  2
Continuous
 70
     0
  3
Solid line
 72
    65
 73
     0
 40
0.0
  0
ENDTAB
  0
TABLE
  2
LAYER
  5
2
330
0
100
AcDbSymbolTable
 70
     2
  0
LAYER
  5
10
330
2
100
AcDbSymbolTableRecord
100
AcDbLayerTableRecord
  2
0
 70
     0
 62
     7
  6
Continuous
370
    -3
390
F
  0
LAYER
  5
3B
330
2
100
AcDbSymbolTableRecord
100
AcDbLayerTableRecord
  2
Layer 03
 70
     0
 62
     5
  6
Continuous
370
    -3
390
F
  0
ENDTAB
  0
TABLE
  2
STYLE
  5
3
330
0
100
AcDbSymbolTable
 70
     1
  0
STYLE
  5
11
330
3
100
AcDbSymbolTableRecord
100
AcDbTextStyleTableRecord
  2
Standard
 70
     0
 40
0.0
 41
1.0
 50
0.0
 71
     0
 42
0.2
  3
txt
  4

  0
ENDTAB
  0
TABLE
  2
VIEW
  5
6
330
0
100
AcDbSymbolTable
 70
     0
  0
ENDTAB
  0
TABLE
  2
UCS
  5
7
330
0
100
AcDbSymbolTable
 70
     0
  0
ENDTAB
  0
TABLE
  2
APPID
  5
9
330
0
100
AcDbSymbolTable
 70
     1
  0
APPID
  5
12
330
9
100
AcDbSymbolTableRecord
100
AcDbRegAppTableRecord
  2
ACAD
 70
     0
  0
ENDTAB
  0
TABLE
  2
DIMSTYLE
  5
A
330
0
100
AcDbSymbolTable
 70
     1
100
AcDbDimStyleTable
  0
DIMSTYLE
105
27
330
A
100
AcDbSymbolTableRecord
100
AcDbDimStyleTableRecord
  2
Standard
 70
     0
340
11
  0
ENDTAB
  0
TABLE
  2
BLOCK_RECORD
  5
1
330
0
100
AcDbSymbolTable
 70
     1
  0
BLOCK_RECORD
  5
1F
330
1
100
AcDbSymbolTableRecord
100
AcDbBlockTableRecord
  2
*Model_Space
340
22
  0
BLOCK_RECORD
  5
1B
330
1
100
AcDbSymbolTableRecord
100
AcDbBlockTableRecord
  2
*Paper_Space
340
1E
  0
BLOCK_RECORD
  5
23
330
1
100
AcDbSymbolTableRecord
100
AcDbBlockTableRecord
  2
*Paper_Space0
340
26
  0
ENDTAB
  0
ENDSEC
  0
SECTION
  2
BLOCKS
  0
BLOCK
  5
20
330
1F
100
AcDbEntity
  8
0
100
AcDbBlockBegin
  2
*Model_Space
 70
     0
 10
0.0
 20
0.0
 30
0.0
  3
*Model_Space
  1

  0
ENDBLK
  5
21
330
1F
100
AcDbEntity
  8
0
100
AcDbBlockEnd
  0
BLOCK
  5
1C
330
1B
100
AcDbEntity
 67
     1
  8
0
100
AcDbBlockBegin
  2
*Paper_Space
 70
     0
 10
0.0
 20
0.0
 30
0.0
  3
*Paper_Space
  1

  0
ENDBLK
  5
1D
330
1B
100
AcDbEntity
 67
     1
  8
0
100
AcDbBlockEnd
  0
BLOCK
  5
24
330
23
100
AcDbEntity
  8
0
100
AcDbBlockBegin
  2
*Paper_Space0
 70
     0
 10
0.0
 20
0.0
 30
0.0
  3
*Paper_Space0
  1

  0
ENDBLK
  5
25
330
23
100
AcDbEntity
  8
0
100
AcDbBlockEnd
  0
ENDSEC
  0
SECTION
  2
ENTITIES
  0
LINE
  5
3C
330
1F
100
AcDbEntity
  8
Layer 03
100
AcDbLine
 10
1.375
 20
9.625
 30
0.0
 11
1.375
 21
5.125
 31
0.0
  0
LINE
  5
3D
330
1F
100
AcDbEntity
  8
Layer 03
100
AcDbLine
 10
1.375
 20
9.625
 30
0.0
 11
1.375
 21
9.625
 31
0.25
  0
LINE
  5
3E
330
1F
100
AcDbEntity
  8
Layer 03
100
AcDbLine
 10
1.375
 20
9.625
 30
0.25
 11
1.375
 21
5.125
 31
0.25
  0
POLYLINE
  5
3F
330
1F
100
AcDbEntity
  8
Layer 03
100
AcDb2dPolyline
 66
     1
 10
0.0
 20
0.0
 30
0.0
  0
VERTEX
  5
40
330
3F
100
AcDbEntity
  8
Layer 03
100
AcDbVertex
100
AcDb2dVertex
 10
-1.375
 20
9.625
 30
0.0
  0
VERTEX
  5
41
330
3F
100
AcDbEntity
  8
Layer 03
100
AcDbVertex
100
AcDb2dVertex
 10
1.375
 20
9.625
 30
0.0
  0
SEQEND
  5
42
330
3F
100
AcDbEntity
  8
Layer 03
  0
LINE
  5
43
330
1F
100
AcDbEntity
  8
Layer 03
100
AcDbLine
 10
-1.375
 20
5.125
 30
0.0
 11
-1.375
 21
9.625
 31
0.0
  0
POLYLINE
  5
44
330
1F
100
AcDbEntity
  8
Layer 03
100
AcDb2dPolyline
 66
     1
 10
0.0
 20
0.0
 30
0.0
  0
VERTEX
  5
45
330
44
100
AcDbEntity
  8
Layer 03
100
AcDbVertex
100
AcDb2dVertex
 10
1.375
 20
5.125
 30
0.0
  0
VERTEX
  5
46
330
44
100
AcDbEntity
  8
Layer 03
100
AcDbVertex
100
AcDb2dVertex
 10
-1.375
 20
5.125
 30
0.0
  0
SEQEND
  5
47
330
44
100
AcDbEntity
  8
Layer 03
  0
POLYLINE
  5
48
330
1F
100
AcDbEntity
  8
Layer 03
100
AcDb2dPolyline
 66
     1
 10
0.0
 20
0.0
 30
0.25
  0
VERTEX
  5
49
330
48
100
AcDbEntity
  8
Layer 03
100
AcDbVertex
100
AcDb2dVertex
 10
-1.375
 20
9.625
 30
0.25
  0
VERTEX
  5
4A
330
48
100
AcDbEntity
  8
Layer 03
100
AcDbVertex
100
AcDb2dVertex
 10
1.375
 20
9.625
 30
0.25
  0
SEQEND
  5
4B
330
48
100
AcDbEntity
  8
Layer 03
  0
LINE
  5
4C
330
1F
100
AcDbEntity
  8
Layer 03
100
AcDbLine
 10
-1.375
 20
5.125
 30
0.25
 11
-1.375
 21
9.625
 31
0.25
  0
POLYLINE
  5
4D
330
1F
100
AcDbEntity
  8
Layer 03
100
AcDb2dPolyline
 66
     1
 10
0.0
 20
0.0
 30
0.25
  0
VERTEX
  5
4E
330
4D
100
AcDbEntity
  8
Layer 03
100
AcDbVertex
100
AcDb2dVertex
 10
1.375
 20
5.125
 30
0.25
  0
VERTEX
  5
4F
330
4D
100
AcDbEntity
  8
Layer 03
100
AcDbVertex
100
AcDb2dVertex
 10
-1.375
 20
5.125
 30
0.25
  0
SEQEND
  5
50
330
4D
100
AcDbEntity
  8
Layer 03
  0
LINE
  5
51
330
1F
100
AcDbEntity
  8
Layer 03
100
AcDbLine
 10
-1.375
 20
9.625
 30
0.0
 11
-1.375
 21
9.625
 31
0.25
  0
LINE
  5
52
330
1F
100
AcDbEntity
  8
Layer 03
100
AcDbLine
 10
-1.375
 20
5.125
 30
0.0
 11
-1.375
 21
5.125
 31
0.25
  0
LINE
  5
53
330
1F
100
AcDbEntity
  8
Layer 03
100
AcDbLine
 10
1.375
 20
5.125
 30
0.0
 11
1.375
 21
5.125
 31
0.25
  0
LINE
  5
54
330
1F
100
AcDbEntity
  8
Layer 03
100
AcDbLine
 10
1.375
 20
-7.25
 30
0.0
 11
1.375
 21
-2.75
 31
0.0
  0
LINE
  5
55
330
1F
100
AcDbEntity
  8
Layer 03
100
AcDbLine
 10
1.375
 20
-7.25
 30
0.0
 11
1.375
 21
-7.25
 31
0.25
  0
LINE
  5
56
330
1F
100
AcDbEntity
  8
Layer 03
100
AcDbLine
 10
1.375
 20
-7.25
 30
0.25
 11
1.375
 21
-2.75
 31
0.25
  0
POLYLINE
  5
57
330
1F
100
AcDbEntity
  8
Layer 03
100
AcDb2dPolyline
 66
     1
 10
0.0
 20
0.0
 30
0.0
  0
VERTEX
  5
58
330
57
100
AcDbEntity
  8
Layer 03
100
AcDbVertex
100
AcDb2dVertex
 10
-1.375
 20
-7.25
 30
0.0
  0
VERTEX
  5
59
330
57
100
AcDbEntity
  8
Layer 03
100
AcDbVertex
100
AcDb2dVertex
 10
1.375
 20
-7.25
 30
0.0
  0
SEQEND
  5
5A
330
57
100
AcDbEntity
  8
Layer 03
  0
LINE
  5
5B
330
1F
100
AcDbEntity
  8
Layer 03
100
AcDbLine
 10
-1.375
 20
-2.75
 30
0.0
 11
-1.375
 21
-7.25
 31
0.0
  0
POLYLINE
  5
5C
330
1F
100
AcDbEntity
  8
Layer 03
100
AcDb2dPolyline
 66
     1
 10
0.0
 20
0.0
 30
0.0
  0
VERTEX
  5
5D
330
5C
100
AcDbEntity
  8
Layer 03
100
AcDbVertex
100
AcDb2dVertex
 10
1.375
 20
-2.75
 30
0.0
  0
VERTEX
  5
5E
330
5C
100
AcDbEntity
  8
Layer 03
100
AcDbVertex
100
AcDb2dVertex
 10
-1.375
 20
-2.75
 30
0.0
  0
SEQEND
  5
5F
330
5C
100
AcDbEntity
  8
Layer 03
  0
POLYLINE
  5
60
330
1F
100
AcDbEntity
  8
Layer 03
100
AcDb2dPolyline
 66
     1
 10
0.0
 20
0.0
 30
0.25
  0
VERTEX
  5
61
330
60
100
AcDbEntity
  8
Layer 03
100
AcDbVertex
100
AcDb2dVertex
 10
-1.375
 20
-7.25
 30
0.25
  0
VERTEX
  5
62
330
60
100
AcDbEntity
  8
Layer 03
100
AcDbVertex
100
AcDb2dVertex
 10
1.375
 20
-7.25
 30
0.25
  0
SEQEND
  5
63
330
60
100
AcDbEntity
  8
Layer 03
  0
LINE
  5
64
330
1F
100
AcDbEntity
  8
Layer 03
100
AcDbLine
 10
-1.375
 20
-2.75
 30
0.25
 11
-1.375
 21
-7.25
 31
0.25
  0
POLYLINE
  5
65
330
1F
100
AcDbEntity
  8
Layer 03
100
AcDb2dPolyline
 66
     1
 10
0.0
 20
0.0
 30
0.25
  0
VERTEX
  5
66
330
65
100
AcDbEntity
  8
Layer 03
100
AcDbVertex
100
AcDb2dVertex
 10
1.375
 20
-2.75
 30
0.25
  0
VERTEX
  5
67
330
65
100
AcDbEntity
  8
Layer 03
100
AcDbVertex
100
AcDb2dVertex
 10
-1.375
 20
-2.75
 30
0.25
  0
SEQEND
  5
68
330
65
100
AcDbEntity
  8
Layer 03
  0
LINE
  5
69
330
1F
100
AcDbEntity
  8
Layer 03
100
AcDbLine
 10
-1.375
 20
-7.25
 30
0.0
 11
-1.375
 21
-7.25
 31
0.25
  0
LINE
  5
6A
330
1F
100
AcDbEntity
  8
Layer 03
100
AcDbLine
 10
-1.375
 20
-2.75
 30
0.0
 11
-1.375
 21
-2.75
 31
0.25
  0
LINE
  5
6B
330
1F
100
AcDbEntity
  8
Layer 03
100
AcDbLine
 10
1.375
 20
-2.75
 30
0.0
 11
1.375
 21
-2.75
 31
0.25
  0
SPLINE
  5
6C
330
1F
100
AcDbEntity
  8
Layer 03
100
AcDbSpline
210
0.0
220
0.0
230
1.0
 70
    15
 71
     3
 72
    15
 73
    11
 74
     0
 42
0.0000000001
 43
0.0000000001
 40
-0.0000096806343493
 40
-0.0000096806343493
 40
-0.0000096806343493
 40
-0.0000096806343493
 40
0.9830408704568305
 40
2.014772371321824
 40
3.087823550788261
 40
4.164567241761452
 40
5.227297114118959
 40
6.314382226258656
 40
7.332107143601176
 40
8.41917953201777
 40
8.41917953201777
 40
8.41917953201777
 40
8.41917953201777
 10
1.339999973388444
 20
-4.999990319365672
 30
0.25
 41
1.0
 10
1.341175530167334
 20
-5.327455950640761
 30
0.2499999999999998
 41
1.0
 10
1.082823769555176
 20
-5.997973801578681
 30
0.2499999999999997
 41
1.0
 10
0.086299200522177
 20
-6.483689783673022
 30
0.2500000000000001
 41
1.0
 10
-1.000496993383649
 20
-6.10773931167013
 30
0.2499999999999999
 41
1.0
 10
-1.489959959342187
 20
-5.054940891668714
 30
0.2499999999999999
 41
1.0
 10
-1.076685428259594
 20
-3.966167500762786
 30
0.2499999999999999
 41
1.0
 10
-0.0232601644918446
 20
-3.51387532224372
 30
0.2500000000000001
 41
1.0
 10
1.039232603592382
 20
-3.939779894883436
 30
0.2499999999999997
 41
1.0
 10
1.342273465936884
 20
-4.637246242553601
 30
0.2499999999999999
 41
1.0
 10
1.339999973388444
 20
-4.999990319365672
 30
0.25
 41
1.0
  0
SPLINE
  5
6D
330
1F
100
AcDbEntity
  8
Layer 03
100
AcDbSpline
 70
     7
 71
     3
 72
    15
 73
    11
 74
     0
 42
0.0000000001
 43
0.0000000001
 40
-0.0000096806343493
 40
-0.0000096806343493
 40
-0.0000096806343493
 40
-0.0000096806343493
 40
0.9830408704568305
 40
2.014772371321824
 40
3.087823550788261
 40
4.164567241761452
 40
5.227297114118959
 40
6.314382226258656
 40
7.332107143601176
 40
8.41917953201777
 40
8.41917953201777
 40
8.41917953201777
 40
8.41917953201777
 10
1.189999973388453
 20
-4.99999031936882
 30
0.3999999468103881
 41
1.0
 10
1.191043921577631
 20
-5.290799244274837
 30
0.3999977324153834
 41
1.0
 10
0.9616122849108564
 20
-5.886258933236505
 30
0.3999923381448954
 41
1.0
 10
0.0766388629384522
 20
-6.31760385727528
 30
0.3999875516971125
 41
1.0
 10
-0.8885012104652361
 20
-5.983737251557031
 30
0.3999913305754258
 41
1.0
 10
-1.323173313475138
 20
-5.048789681979343
 30
0.4000000671313099
 41
1.0
 10
-0.9561610719376574
 20
-4.081894250257811
 30
0.40000615101836
 41
1.0
 10
-0.0206564266363216
 20
-3.680231644395441
 30
0.4000078119365104
 41
1.0
 10
0.9229007455481621
 20
-4.058460463594976
 30
0.4000062385792046
 41
1.0
 10
1.19201895240883
 20
-4.677852046599931
 30
0.4000024548321946
 41
1.0
 10
1.189999973388453
 20
-4.99999031936882
 30
0.3999999468103881
 41
1.0
  0
SPLINE
  5
6E
330
1F
100
AcDbEntity
  8
Layer 03
100
AcDbSpline
210
-2.106759958580262E-11
220
1.0
230
-8.290415241739707E-14
 70
    12
 71
     2
 72
     6
 73
     3
 74
     0
 42
0.0000000001
 43
0.0000000001
 40
0.0
 40
0.0
 40
0.0
 40
1.0
 40
1.0
 40
1.0
 10
1.339999973388444
 20
-4.999990319365672
 30
0.25
 41
1.0
 10
1.190000026578051
 20
-4.999990319368832
 30
0.2500000000000004
 41
0.7071069065556638
 10
1.189999973388453
 20
-4.99999031936882
 30
0.3999999468103881
 41
1.0
  0
SPLINE
  5
6F
330
1F
100
AcDbEntity
  8
Layer 03
100
AcDbSpline
210
0.0
220
0.0
230
1.0
 70
    15
 71
     3
 72
    15
 73
    11
 74
     0
 42
0.0000000001
 43
0.0000000001
 40
0.0000197151300375
 40
0.0000197151300375
 40
0.0000197151300375
 40
0.0000197151300375
 40
1.0183585563259
 40
2.100881352566613
 40
3.119246121736184
 40
4.219024766158125
 40
5.25220003829197
 40
6.337128149319278
 40
7.353031860754386
 40
8.403466277526876
 40
8.403466277526876
 40
8.403466277526876
 40
8.403466277526876
 10
1.337500026610513
 20
7.345546861187039
 30
0.25
 41
1.0
 10
1.339124345781755
 20
7.684179375655937
 30
0.2500000000000002
 41
1.0
 10
1.057732344463844
 20
8.384809168551925
 30
0.2500000000000001
 41
1.0
 10
0.0225792882938691
 20
8.82861589131285
 30
0.2500000000000001
 41
1.0
 10
-1.045342942020255
 20
8.40139615198482
 30
0.2500000000000004
 41
1.0
 10
-1.487916265451247
 20
7.349489407259057
 30
0.2500000000000011
 41
1.0
 10
-1.037793791037515
 20
6.282325944357751
 30
0.2500000000000001
 41
1.0
 10
0.0148825163017818
 20
5.862154651593904
 30
0.2500000000000001
 41
1.0
 10
1.053015569568828
 20
6.309518210543871
 30
0.2499999999999998
 41
1.0
 10
1.339273384300782
 20
6.995202841697186
 30
0.25
 41
1.0
 10
1.337500026610513
 20
7.345546861187039
 30
0.25
 41
1.0
  0
SPLINE
  5
70
330
1F
100
AcDbEntity
  8
Layer 03
100
AcDbSpline
 70
     7
 71
     3
 72
    15
 73
    11
 74
     0
 42
0.0000000001
 43
0.0000000001
 40
0.0000197151300374
 40
0.0000197151300374
 40
0.0000197151300374
 40
0.0000197151300374
 40
1.0183585563259
 40
2.100881352566613
 40
3.119246121736184
 40
4.219024766158125
 40
5.25220003829197
 40
6.337128149319278
 40
7.353031860754386
 40
8.403466277526876
 40
8.403466277526876
 40
8.403466277526876
 40
8.403466277526876
 10
1.187500026610522
 20
7.345546861193192
 30
0.4000000531876801
 41
1.0
 10
1.18894214174594
 20
7.646201668220108
 30
0.4000043398937455
 41
1.0
 10
0.9391084571383601
 20
8.268255781444111
 30
0.4000114129965502
 41
1.0
 10
0.0200470343607435
 20
8.662290066689948
 30
0.4000144167705484
 41
1.0
 10
-0.9281085089241685
 20
8.282982523992636
 30
0.4000115474429429
 41
1.0
 10
-1.321046990291563
 20
7.349047251773264
 30
0.4000010043564489
 41
1.0
 10
-0.9214059922581725
 20
6.401566296119867
 30
0.3999850589387852
 41
1.0
 10
0.0132134504605972
 20
6.028516720252014
 30
0.3999773768205118
 41
1.0
 10
0.9349206626247479
 20
6.42570893760486
 30
0.3999854865065772
 41
1.0
 10
1.189074467291164
 20
7.034493997303194
 30
0.3999957303758488
 41
1.0
 10
1.187500026610522
 20
7.345546861193192
 30
0.4000000531876801
 41
1.0
  0
SPLINE
  5
71
330
1F
100
AcDbEntity
  8
Layer 03
100
AcDbSpline
 70
     4
 71
     3
 72
    65
 73
    61
 74
     0
 42
0.0000000001
 43
0.0000000001
 40
0.1499976813191504
 40
0.1499976813191504
 40
0.1499976813191504
 40
0.1499976813191504
 40
4.500000000000001
 40
6.750000000000002
 40
9.000000000000002
 40
9.589047698120096
 40
10.17809539624019
 40
10.76714309436028
 40
11.35619079248038
 40
11.94523849060047
 40
12.53428618872056
 40
13.12333388684065
 40
13.71238158496074
 40
15.88310621607465
 40
18.05383084718857
 40
20.2245554783025
 40
21.30991779385946
 40
22.39528010941642
 40
22.83706501378718
 40
23.27884991815795
 40
23.72063482252872
 40
24.16241972689949
 40
25.04598953564102
 40
25.92955934438256
 40
26.81312915312409
 40
27.69669896186562
 40
29.46383857934869
 40
31.23097819683174
 40
32.9981178143148
 40
33.88168762305633
 40
34.76525743179786
 40
35.64882724053938
 40
36.09061214491015
 40
36.53239704928091
 40
37.78239704928092
 40
39.03239704928092
 40
41.53239704928092
 40
42.78239704928092
 40
44.03239704928092
 40
45.28239704928092
 40
46.53239704928092
 40
47.09783230114651
 40
47.3805499270793
 40
47.66326755301209
 40
47.94598517894488
 40
48.22870280487767
 40
48.51142043081046
 40
48.79413805674325
 40
50.01944716095193
 40
51.24475626516061
 40
52.47006536936929
 40
53.08271992147363
 40
53.69537447357797
 40
54.26080972544356
 40
54.82624497730914
 40
55.39168022917472
 40
55.95711548104031
 40
61.86336548104032
 40
67.76961548104032
 40
79.43211489672663
 40
79.43211489672663
 40
79.43211489672663
 40
79.43211489672663
 10
1.187500026610522
 20
7.345546861193192
 30
0.4000000531876801
 41
1.0
 10
1.187500540765131
 20
7.345708327581175
 30
1.850019906224621
 41
0.9999999999999998
 10
1.187512611081587
 20
7.344710994876543
 30
4.049884105859888
 41
1.0
 10
1.187549245448537
 20
7.347717745433521
 30
7.000038457103187
 41
1.0
 10
1.187577817747119
 20
7.339537336835104
 30
8.696267677598371
 41
1.000000000000001
 10
1.18760003753637
 20
7.361043719183343
 30
9.839021421033113
 41
1.0
 10
1.187612115329415
 20
7.452361333142342
 30
10.4223924555415
 41
1.0
 10
1.187624804708548
 20
7.594388172195146
 30
10.99458213419494
 41
1.0
 10
1.187638093508367
 20
7.793452105859142
 30
11.5497098113778
 41
1.0
 10
1.187651969563478
 20
8.045249527863692
 30
12.08305282527141
 41
0.9999999999999998
 10
1.187666420708496
 20
8.349387391980486
 30
12.58806253771165
 41
1.0
 10
1.187681434778024
 20
8.697343394642274
 30
13.0650542851024
 41
1.0
 10
1.187710930866964
 20
9.47153006225236
 30
13.86976857370128
 41
0.9999999999999999
 10
1.187757878462558
 20
10.63938268342342
 30
15.02578245150453
 41
1.0
 10
1.187826592024836
 20
12.17236052897588
 30
16.56319710638325
 41
0.9999999999999998
 10
1.187888933835183
 20
13.45217270598864
 30
17.84120587049287
 41
1.0
 10
1.187941551178436
 20
14.47441634311388
 30
18.86564044335206
 41
1.0
 10
1.187974253895646
 20
15.09314426981162
 30
19.47846073958177
 41
1.0
 10
1.187999419372121
 20
15.54863353118428
 30
19.95131344656029
 41
0.9999999999999998
 10
1.188016556060004
 20
15.8232232927506
 30
20.297813390522
 41
1.0
 10
1.188033884571319
 20
16.07384370782507
 30
20.66212222065359
 41
0.9999999999999999
 10
1.188057238174719
 20
16.37055920832728
 30
21.17153043406195
 41
1.0
 10
1.188086884076349
 20
16.66967742126365
 30
21.84620668715915
 41
0.9999999999999999
 10
1.188123144336198
 20
16.90604241307835
 30
22.70026754962358
 41
1.0
 10
1.188160048715972
 20
17.01442950672794
 30
23.57950412810654
 41
1.0
 10
1.188210058638276
 20
16.985695551388
 30
24.76062113916687
 41
1.0
 10
1.188273976051131
 20
16.62401498093279
 30
26.20448461543865
 41
1.0
 10
1.18835259649879
 20
15.70557158119609
 30
27.73681665947604
 41
0.9999999999999998
 10
1.188419439445624
 20
14.60266328932141
 30
28.73646853941922
 41
1.0
 10
1.188473545115487
 20
13.57454016061599
 30
29.31851753453032
 41
0.9999999999999998
 10
1.188514398966118
 20
12.74813389601209
 30
29.63759026243439
 41
1.0
 10
1.188548638458538
 20
12.02765288597378
 30
29.79864587726208
 41
1.0
 10
1.188576126293638
 20
11.44183607214631
 30
29.86585978030279
 41
1.0
 10
1.188609383148923
 20
10.73070363713299
 30
29.87823221079362
 41
0.9999999999999999
 10
1.188655398881037
 20
9.749845104234982
 30
29.87389292344979
 41
1.0
 10
1.188733858527146
 20
8.08336289204637
 30
29.87537427306903
 41
0.9999999999999998
 10
1.188812459288024
 20
6.416706153215036
 30
29.87491160058028
 41
0.9999999999999999
 10
1.188890736150918
 20
4.750052086702635
 30
29.87492274286025
 41
0.9999999999999999
 10
1.188949165595915
 20
3.499998751331766
 30
29.87539464240874
 41
1.0
 10
1.189007200585536
 20
2.250003546765093
 30
29.87349868750483
 41
1.0
 10
1.189054223774641
 20
1.228264807120525
 30
29.87931232230004
 41
1.000000000000001
 10
1.18908615430312
 20
0.5287650837505682
 30
29.86400535648642
 41
0.9999999999999999
 10
1.189103294817867
 20
0.1544643407206134
 30
29.81692491462274
 41
1.0
 10
1.189116114096761
 20
-0.1246408945416153
 30
29.77103783775469
 41
1.0
 10
1.189128895923472
 20
-0.4011489058860905
 30
29.71135616603489
 41
1.0
 10
1.189141638952943
 20
-0.6744643392850126
 30
29.63893439486759
 41
1.0
 10
1.189154341840159
 20
-0.9441181635547151
 30
29.55364028997933
 41
0.9999999999999999
 10
1.189181074438776
 20
-1.504226003933299
 30
29.34709224495223
 41
1.0
 10
1.189221510092935
 20
-2.3169886369094
 30
28.92489718173262
 41
1.0
 10
1.189274975934306
 20
-3.272222514337808
 30
28.14724961888261
 41
1.0
 10
1.189318677838237
 20
-3.920246289197384
 30
27.35126064416745
 41
0.9999999999999993
 10
1.189353072833361
 20
-4.333849263824934
 30
26.64546935476669
 41
1.000000000000001
 10
1.189377917023432
 20
-4.581797226987386
 30
26.10177036499882
 41
0.9999999999999997
 10
1.189401822786991
 20
-4.770692262809284
 30
25.55118748625106
 41
1.0
 10
1.189424805758319
 20
-4.901192926516651
 30
25.00103017282671
 41
1.0
 10
1.189447502608855
 20
-4.986868926310408
 30
24.4404617718269
 41
1.0
 10
1.189540428830363
 20
-5.006335781180982
 30
22.09476525506218
 41
0.9999999999999999
 10
1.189691034553547
 20
-4.99742463195944
 30
17.968794642721
 41
1.0
 10
1.18991594311466
 20
-5.000996592398194
 30
10.14388086148384
 41
0.9999999999999996
 10
1.189998594896372
 20
-4.99975324913284
 30
4.28748468494972
 41
1.000000000000001
 10
1.189999973388453
 20
-4.99999031936882
 30
0.3999999468103881
 41
1.0
  0
SPLINE
  5
72
330
1F
100
AcDbEntity
  8
Layer 03
100
AcDbSpline
210
-4.106935556437297E-11
220
-1.0
230
-4.735493636286092E-14
 70
    12
 71
     2
 72
     6
 73
     3
 74
     0
 42
0.0000000001
 43
0.0000000001
 40
0.0
 40
0.0
 40
0.0
 40
1.0
 40
1.0
 40
1.0
 10
1.337500026610513
 20
7.345546861187039
 30
0.25
 41
1.0
 10
1.187499973422824
 20
7.345546861193199
 30
0.2500000000000001
 41
0.7071066558219732
 10
1.187500026610522
 20
7.345546861193192
 30
0.4000000531876801
 41
1.0
  0
SPLINE
  5
73
330
1F
100
AcDbEntity
  8
Layer 03
100
AcDbSpline
210
0.0
220
0.0
230
1.0
 70
    15
 71
     2
 72
    12
 73
     9
 74
     0
 42
0.0000000001
 43
0.0000000001
 40
-1.570874788347508
 40
-1.570874788347508
 40
-1.570874788347508
 40
-1.178156091260631
 40
-1.178156091260631
 40
-0.785437394173754
 40
-0.785437394173754
 40
-0.3927186970868771
 40
-0.3927186970868771
 40
0.0
 40
0.0
 40
0.0
 10
0.875
 20
-6.5
 30
0.0
 41
1.0
 10
1.124999999999999
 20
-6.499999999999997
 30
0.0
 41
0.7071067811865475
 10
1.125
 20
-6.75
 30
0.0
 41
1.0
 10
1.124999999999999
 20
-7.000000000000002
 30
0.0
 41
0.7071067811865475
 10
0.875
 20
-7.0
 30
0.0
 41
1.0
 10
0.6250000000000052
 20
-7.000000000000002
 30
0.0
 41
0.7071067811865475
 10
0.625
 20
-6.75
 30
0.0
 41
1.0
 10
0.6250000000000052
 20
-6.499999999999997
 30
0.0
 41
0.7071067811865475
 10
0.875
 20
-6.5
 30
0.0
 41
1.0
  0
SPLINE
  5
74
330
1F
100
AcDbEntity
  8
Layer 03
100
AcDbSpline
210
0.0
220
0.0
230
1.0
 70
    15
 71
     2
 72
    12
 73
     9
 74
     0
 42
0.0000000001
 43
0.0000000001
 40
0.0
 40
0.0
 40
0.0
 40
0.3927186970868784
 40
0.3927186970868784
 40
0.7854373941737568
 40
0.7854373941737568
 40
1.178156091260635
 40
1.178156091260635
 40
1.570874788347514
 40
1.570874788347514
 40
1.570874788347514
 10
0.875
 20
-6.5
 30
0.25
 41
1.0
 10
0.6250000000000052
 20
-6.499999999999997
 30
0.25
 41
0.7071067811865475
 10
0.625
 20
-6.75
 30
0.25
 41
1.0
 10
0.6250000000000052
 20
-7.000000000000002
 30
0.25
 41
0.7071067811865475
 10
0.875
 20
-7.0
 30
0.25
 41
1.0
 10
1.124999999999999
 20
-7.000000000000002
 30
0.25
 41
0.7071067811865475
 10
1.125
 20
-6.75
 30
0.25
 41
1.0
 10
1.124999999999999
 20
-6.499999999999997
 30
0.25
 41
0.7071067811865475
 10
0.875
 20
-6.5
 30
0.25
 41
1.0
  0
LINE
  5
75
330
1F
100
AcDbEntity
  8
Layer 03
100
AcDbLine
 10
0.875
 20
-6.5
 30
0.0
 11
0.875
 21
-6.5
 31
0.25
  0
SPLINE
  5
76
330
1F
100
AcDbEntity
  8
Layer 03
100
AcDbSpline
210
0.0
220
0.0
230
1.0
 70
    15
 71
     2
 72
    12
 73
     9
 74
     0
 42
0.0000000001
 43
0.0000000001
 40
-1.57087478834752
 40
-1.57087478834752
 40
-1.57087478834752
 40
-1.17815609126064
 40
-1.17815609126064
 40
-0.7854373941737598
 40
-0.7854373941737598
 40
-0.3927186970868799
 40
-0.3927186970868799
 40
0.0
 40
0.0
 40
0.0
 10
-0.875
 20
-3.0
 30
0.0
 41
1.0
 10
-0.624999999999995
 20
-2.999999999999999
 30
0.0
 41
0.7071067811865475
 10
-0.625
 20
-3.25
 30
0.0
 41
1.0
 10
-0.624999999999995
 20
-3.500000000000008
 30
0.0
 41
0.7071067811865475
 10
-0.875
 20
-3.5
 30
0.0
 41
1.0
 10
-1.124999999999999
 20
-3.500000000000008
 30
0.0
 41
0.7071067811865475
 10
-1.125
 20
-3.25
 30
0.0
 41
1.0
 10
-1.124999999999999
 20
-2.999999999999999
 30
0.0
 41
0.7071067811865475
 10
-0.875
 20
-3.0
 30
0.0
 41
1.0
  0
SPLINE
  5
77
330
1F
100
AcDbEntity
  8
Layer 03
100
AcDbSpline
210
0.0
220
0.0
230
1.0
 70
    15
 71
     2
 72
    12
 73
     9
 74
     0
 42
0.0000000001
 43
0.0000000001
 40
0.0
 40
0.0
 40
0.0
 40
0.3927186970868792
 40
0.3927186970868792
 40
0.7854373941737584
 40
0.7854373941737584
 40
1.178156091260637
 40
1.178156091260637
 40
1.570874788347517
 40
1.570874788347517
 40
1.570874788347517
 10
-0.875
 20
-3.0
 30
0.25
 41
1.0
 10
-1.124999999999999
 20
-2.999999999999999
 30
0.25
 41
0.7071067811865475
 10
-1.125
 20
-3.25
 30
0.25
 41
1.0
 10
-1.124999999999999
 20
-3.500000000000008
 30
0.25
 41
0.7071067811865475
 10
-0.875
 20
-3.5
 30
0.25
 41
1.0
 10
-0.624999999999995
 20
-3.500000000000008
 30
0.25
 41
0.7071067811865475
 10
-0.625
 20
-3.25
 30
0.25
 41
1.0
 10
-0.624999999999995
 20
-2.999999999999999
 30
0.25
 41
0.7071067811865475
 10
-0.875
 20
-3.0
 30
0.25
 41
1.0
  0
LINE
  5
78
330
1F
100
AcDbEntity
  8
Layer 03
100
AcDbLine
 10
-0.875
 20
-3.0
 30
0.0
 11
-0.875
 21
-3.0
 31
0.25
  0
SPLINE
  5
79
330
1F
100
AcDbEntity
  8
Layer 03
100
AcDbSpline
210
0.0
220
0.0
230
1.0
 70
    15
 71
     2
 72
    12
 73
     9
 74
     0
 42
0.0000000001
 43
0.0000000001
 40
-1.570874788347515
 40
-1.570874788347515
 40
-1.570874788347515
 40
-1.178156091260636
 40
-1.178156091260636
 40
-0.7854373941737576
 40
-0.7854373941737576
 40
-0.3927186970868788
 40
-0.3927186970868788
 40
0.0
 40
0.0
 40
0.0
 10
-0.875
 20
5.375
 30
0.0
 41
1.0
 10
-0.624999999999995
 20
5.374999999999998
 30
0.0
 41
0.7071067811865475
 10
-0.625
 20
5.625
 30
0.0
 41
1.0
 10
-0.624999999999995
 20
5.875000000000003
 30
0.0
 41
0.7071067811865475
 10
-0.875
 20
5.875
 30
0.0
 41
1.0
 10
-1.124999999999999
 20
5.875000000000003
 30
0.0
 41
0.7071067811865475
 10
-1.125
 20
5.625
 30
0.0
 41
1.0
 10
-1.124999999999999
 20
5.374999999999998
 30
0.0
 41
0.7071067811865475
 10
-0.875
 20
5.375
 30
0.0
 41
1.0
  0
SPLINE
  5
7A
330
1F
100
AcDbEntity
  8
Layer 03
100
AcDbSpline
210
0.0
220
0.0
230
1.0
 70
    15
 71
     2
 72
    12
 73
     9
 74
     0
 42
0.0000000001
 43
0.0000000001
 40
0.0
 40
0.0
 40
0.0
 40
0.3927186970868786
 40
0.3927186970868786
 40
0.7854373941737571
 40
0.7854373941737571
 40
1.178156091260636
 40
1.178156091260636
 40
1.570874788347514
 40
1.570874788347514
 40
1.570874788347514
 10
-0.875
 20
5.375
 30
0.25
 41
1.0
 10
-1.124999999999999
 20
5.374999999999998
 30
0.25
 41
0.7071067811865475
 10
-1.125
 20
5.625
 30
0.25
 41
1.0
 10
-1.124999999999999
 20
5.875000000000003
 30
0.25
 41
0.7071067811865475
 10
-0.875
 20
5.875
 30
0.25
 41
1.0
 10
-0.624999999999995
 20
5.875000000000003
 30
0.25
 41
0.7071067811865475
 10
-0.625
 20
5.625
 30
0.25
 41
1.0
 10
-0.624999999999995
 20
5.374999999999998
 30
0.25
 41
0.7071067811865475
 10
-0.875
 20
5.375
 30
0.25
 41
1.0
  0
LINE
  5
7B
330
1F
100
AcDbEntity
  8
Layer 03
100
AcDbLine
 10
-0.875
 20
5.375
 30
0.0
 11
-0.875
 21
5.375
 31
0.25
  0
SPLINE
  5
7C
330
1F
100
AcDbEntity
  8
Layer 03
100
AcDbSpline
210
0.0
220
0.0
230
1.0
 70
    15
 71
     2
 72
    12
 73
     9
 74
     0
 42
0.0000000001
 43
0.0000000001
 40
-1.570874788347505
 40
-1.570874788347505
 40
-1.570874788347505
 40
-1.178156091260629
 40
-1.178156091260629
 40
-0.7854373941737525
 40
-0.7854373941737525
 40
-0.3927186970868763
 40
-0.3927186970868763
 40
0.0
 40
0.0
 40
0.0
 10
0.875
 20
8.875
 30
0.0
 41
1.0
 10
1.124999999999999
 20
8.874999999999996
 30
0.0
 41
0.7071067811865475
 10
1.125
 20
9.125
 30
0.0
 41
1.0
 10
1.124999999999999
 20
9.375000000000002
 30
0.0
 41
0.7071067811865475
 10
0.875
 20
9.375
 30
0.0
 41
1.0
 10
0.6250000000000052
 20
9.375000000000002
 30
0.0
 41
0.7071067811865475
 10
0.625
 20
9.125
 30
0.0
 41
1.0
 10
0.6250000000000052
 20
8.874999999999996
 30
0.0
 41
0.7071067811865475
 10
0.875
 20
8.875
 30
0.0
 41
1.0
  0
SPLINE
  5
7D
330
1F
100
AcDbEntity
  8
Layer 03
100
AcDbSpline
210
0.0
220
0.0
230
1.0
 70
    15
 71
     2
 72
    12
 73
     9
 74
     0
 42
0.0000000001
 43
0.0000000001
 40
0.0
 40
0.0
 40
0.0
 40
0.3927186970868771
 40
0.3927186970868771
 40
0.7854373941737542
 40
0.7854373941737542
 40
1.178156091260631
 40
1.178156091260631
 40
1.570874788347508
 40
1.570874788347508
 40
1.570874788347508
 10
0.875
 20
8.875
 30
0.25
 41
1.0
 10
0.6250000000000052
 20
8.874999999999996
 30
0.25
 41
0.7071067811865475
 10
0.625
 20
9.125
 30
0.25
 41
1.0
 10
0.6250000000000052
 20
9.375000000000002
 30
0.25
 41
0.7071067811865475
 10
0.875
 20
9.375
 30
0.25
 41
1.0
 10
1.124999999999999
 20
9.375000000000002
 30
0.25
 41
0.7071067811865475
 10
1.125
 20
9.125
 30
0.25
 41
1.0
 10
1.124999999999999
 20
8.874999999999996
 30
0.25
 41
0.7071067811865475
 10
0.875
 20
8.875
 30
0.25
 41
1.0
  0
LINE
  5
7E
330
1F
100
AcDbEntity
  8
Layer 03
100
AcDbLine
 10
0.875
 20
8.875
 30
0.0
 11
0.875
 21
8.875
 31
0.25
  0
SPLINE
  5
7F
330
1F
100
AcDbEntity
  8
Layer 03
100
AcDbSpline
210
0.0
220
0.0
230
1.0
 70
    24
 71
     2
 72
     6
 73
     3
 74
     0
 42
0.0000000001
 43
0.0000000001
 40
0.0
 40
0.0
 40
0.0
 40
4.0
 40
4.0
 40
4.0
 10
1.375
 20
7.375
 30
0.0
 10
0.0
 20
7.375
 30
0.0
 10
-1.375
 20
7.375
 30
0.0
  0
SPLINE
  5
80
330
1F
100
AcDbEntity
  8
Layer 03
100
AcDbSpline
210
0.0
220
0.0
230
1.0
 70
    24
 71
     2
 72
     6
 73
     3
 74
     0
 42
0.0000000001
 43
0.0000000001
 40
0.0
 40
0.0
 40
0.0
 40
2.75
 40
2.75
 40
2.75
 10
0.0
 20
5.125
 30
0.0
 10
0.0
 20
7.375
 30
0.0
 10
0.0
 20
9.625
 30
0.0
  0
POLYLINE
  5
81
330
1F
100
AcDbEntity
  8
Layer 03
100
AcDb2dPolyline
 66
     1
 10
0.0
 20
0.0
 30
0.125
  0
VERTEX
  5
82
330
81
100
AcDbEntity
  8
Layer 03
100
AcDbVertex
100
AcDb2dVertex
 10
1.375
 20
9.625
 30
0.125
  0
VERTEX
  5
83
330
81
100
AcDbEntity
  8
Layer 03
100
AcDbVertex
100
AcDb2dVertex
 10
-1.375
 20
9.625
 30
0.125
  0
SEQEND
  5
84
330
81
100
AcDbEntity
  8
Layer 03
  0
LINE
  5
85
330
1F
100
AcDbEntity
  8
Layer 03
100
AcDbLine
 10
0.0
 20
9.625
 30
0.0
 11
0.0
 21
9.625
 31
0.25
  0
SPLINE
  5
86
330
1F
100
AcDbEntity
  8
Layer 03
100
AcDbSpline
210
0.0
220
0.0
230
1.0
 70
    24
 71
     2
 72
     6
 73
     3
 74
     0
 42
0.0000000001
 43
0.0000000001
 40
0.0
 40
0.0
 40
0.0
 40
0.5750992760611717
 40
0.5750992760611717
 40
0.5750992760611717
 10
0.0
 20
9.625
 30
0.25
 10
0.0
 20
9.154464228677224
 30
0.25
 10
0.0
 20
8.683928457354446
 30
0.25
  0
SPLINE
  5
87
330
1F
100
AcDbEntity
  8
Layer 03
100
AcDbSpline
210
0.0
220
0.0
230
1.0
 70
    24
 71
     2
 72
     6
 73
     3
 74
     0
 42
0.0000000001
 43
0.0000000001
 40
2.210909900636764
 40
2.210909900636764
 40
2.210909900636764
 40
2.75
 40
2.75
 40
2.75
 10
0.0
 20
6.007147435321659
 30
0.25
 10
0.0
 20
5.56607371766083
 30
0.25
 10
0.0
 20
5.125
 30
0.25
  0
SPLINE
  5
88
330
1F
100
AcDbEntity
  8
Layer 03
100
AcDbSpline
210
0.0
220
0.0
230
1.0
 70
    24
 71
     2
 72
     6
 73
     3
 74
     0
 42
0.0000000001
 43
0.0000000001
 40
0.0
 40
0.0
 40
0.0
 40
0.0537176317206653
 40
0.0537176317206653
 40
0.0537176317206653
 10
-1.375
 20
7.375
 30
0.25
 10
-1.356534564096021
 20
7.375
 30
0.25
 10
-1.338069128192042
 20
7.375
 30
0.25
  0
SPLINE
  5
89
330
1F
100
AcDbEntity
  8
Layer 03
100
AcDbSpline
210
0.0
220
0.0
230
1.0
 70
    24
 71
     2
 72
     6
 73
     3
 74
     0
 42
0.0000000001
 43
0.0000000001
 40
3.945213118346077
 40
3.945213118346077
 40
3.945213118346077
 40
4.0
 40
4.0
 40
4.0
 10
1.337334018862928
 20
7.375
 30
0.25
 10
1.356167009431464
 20
7.375
 30
0.25
 10
1.375
 20
7.375
 30
0.25
  0
SPLINE
  5
8A
330
1F
100
AcDbEntity
  8
Layer 03
100
AcDbSpline
210
0.0
220
0.0
230
1.0
 70
    24
 71
     2
 72
     6
 73
     3
 74
     0
 42
0.0000000001
 43
0.0000000001
 40
-10.75
 40
-10.75
 40
-10.75
 40
-6.75
 40
-6.75
 40
-6.75
 10
-1.375
 20
5.125
 30
0.125
 10
-1.375
 20
7.375
 30
0.125
 10
-1.375
 20
9.625
 30
0.125
  0
SPLINE
  5
8B
330
1F
100
AcDbEntity
  8
Layer 03
100
AcDbSpline
210
0.0
220
0.0
230
1.0
 70
    24
 71
     2
 72
     6
 73
     3
 74
     0
 42
0.0000000001
 43
0.0000000001
 40
0.0
 40
0.0
 40
0.0
 40
0.125
 40
0.125
 40
0.125
 10
-1.375
 20
7.375
 30
0.25
 10
-1.375
 20
7.375
 30
0.125
 10
-1.375
 20
7.375
 30
0.0
  0
POLYLINE
  5
8C
330
1F
100
AcDbEntity
  8
Layer 03
100
AcDb2dPolyline
 66
     1
 10
0.0
 20
0.0
 30
0.125
  0
VERTEX
  5
8D
330
8C
100
AcDbEntity
  8
Layer 03
100
AcDbVertex
100
AcDb2dVertex
 10
-1.375
 20
5.125
 30
0.125
  0
VERTEX
  5
8E
330
8C
100
AcDbEntity
  8
Layer 03
100
AcDbVertex
100
AcDb2dVertex
 10
1.375
 20
5.125
 30
0.125
  0
SEQEND
  5
8F
330
8C
100
AcDbEntity
  8
Layer 03
  0
LINE
  5
90
330
1F
100
AcDbEntity
  8
Layer 03
100
AcDbLine
 10
0.0
 20
5.125
 30
0.0
 11
0.0
 21
5.125
 31
0.25
  0
SPLINE
  5
91
330
1F
100
AcDbEntity
  8
Layer 03
100
AcDbSpline
210
0.0
220
0.0
230
1.0
 70
    24
 71
     2
 72
     6
 73
     3
 74
     0
 42
0.0000000001
 43
0.0000000001
 40
-4.0
 40
-4.0
 40
-4.0
 40
0.0
 40
0.0
 40
0.0
 10
1.375
 20
7.375
 30
0.0
 10
1.375
 20
7.375
 30
0.125
 10
1.375
 20
7.375
 30
0.25
  0
SPLINE
  5
92
330
1F
100
AcDbEntity
  8
Layer 03
100
AcDbSpline
210
0.0
220
0.0
230
1.0
 70
    24
 71
     2
 72
     6
 73
     3
 74
     0
 42
0.0000000001
 43
0.0000000001
 40
0.0
 40
0.0
 40
0.0
 40
0.125
 40
0.125
 40
0.125
 10
1.375
 20
9.625
 30
0.125
 10
1.375
 20
7.375
 30
0.125
 10
1.375
 20
5.125
 30
0.125
  0
SPLINE
  5
93
330
1F
100
AcDbEntity
  8
Layer 03
100
AcDbSpline
210
0.0
220
0.0
230
1.0
 70
    24
 71
     2
 72
     6
 73
     3
 74
     0
 42
0.0000000001
 43
0.0000000001
 40
0.0
 40
0.0
 40
0.0
 40
2.75
 40
2.75
 40
2.75
 10
0.0
 20
-7.25
 30
0.0
 10
0.0
 20
-5.0
 30
0.0
 10
0.0
 20
-2.75
 30
0.0
  0
SPLINE
  5
94
330
1F
100
AcDbEntity
  8
Layer 03
100
AcDbSpline
210
0.0
220
0.0
230
1.0
 70
    24
 71
     2
 72
     6
 73
     3
 74
     0
 42
0.0000000001
 43
0.0000000001
 40
0.0
 40
0.0
 40
0.0
 40
4.0
 40
4.0
 40
4.0
 10
-1.375
 20
-5.0
 30
0.0
 10
0.0
 20
-5.0
 30
0.0
 10
1.375
 20
-5.0
 30
0.0
  0
LINE
  5
95
330
1F
100
AcDbEntity
  8
Layer 03
100
AcDbLine
 10
0.0
 20
-7.25
 30
0.0
 11
0.0
 21
-7.25
 31
0.25
  0
POLYLINE
  5
96
330
1F
100
AcDbEntity
  8
Layer 03
100
AcDb2dPolyline
 66
     1
 10
0.0
 20
0.0
 30
0.125
  0
VERTEX
  5
97
330
96
100
AcDbEntity
  8
Layer 03
100
AcDbVertex
100
AcDb2dVertex
 10
1.375
 20
-7.25
 30
0.125
  0
VERTEX
  5
98
330
96
100
AcDbEntity
  8
Layer 03
100
AcDbVertex
100
AcDb2dVertex
 10
-1.375
 20
-7.25
 30
0.125
  0
SEQEND
  5
99
330
96
100
AcDbEntity
  8
Layer 03
  0
SPLINE
  5
9A
330
1F
100
AcDbEntity
  8
Layer 03
100
AcDbSpline
210
0.0
220
0.0
230
1.0
 70
    24
 71
     2
 72
     6
 73
     3
 74
     0
 42
0.0000000001
 43
0.0000000001
 40
0.0
 40
0.0
 40
0.0
 40
0.0509090791156178
 40
0.0509090791156178
 40
0.0509090791156178
 10
1.375
 20
-5.0
 30
0.25
 10
1.357500004054006
 20
-5.0
 30
0.25
 10
1.340000008108013
 20
-5.0
 30
0.25
  0
SPLINE
  5
9B
330
1F
100
AcDbEntity
  8
Layer 03
100
AcDbSpline
210
0.0
220
0.0
230
1.0
 70
    24
 71
     2
 72
     6
 73
     3
 74
     0
 42
0.0000000001
 43
0.0000000001
 40
3.95031709232648
 40
3.95031709232648
 40
3.95031709232648
 40
4.0
 40
4.0
 40
4.0
 10
-1.340843000974455
 20
-5.0
 30
0.25
 10
-1.357921500487228
 20
-5.0
 30
0.25
 10
-1.375
 20
-5.0
 30
0.25
  0
SPLINE
  5
9C
330
1F
100
AcDbEntity
  8
Layer 03
100
AcDbSpline
210
0.0
220
0.0
230
1.0
 70
    24
 71
     2
 72
     6
 73
     3
 74
     0
 42
0.0000000001
 43
0.0000000001
 40
0.0
 40
0.0
 40
0.0
 40
0.5555355219774216
 40
0.5555355219774216
 40
0.5555355219774216
 10
0.0
 20
-2.75
 30
0.25
 10
0.0
 20
-3.204529063436072
 30
0.25
 10
0.0
 20
-3.659058126872144
 30
0.25
  0
SPLINE
  5
9D
330
1F
100
AcDbEntity
  8
Layer 03
100
AcDbSpline
210
0.0
220
0.0
230
1.0
 70
    24
 71
     2
 72
     6
 73
     3
 74
     0
 42
0.0000000001
 43
0.0000000001
 40
2.194335322668887
 40
2.194335322668887
 40
2.194335322668887
 40
2.75
 40
2.75
 40
2.75
 10
0.0
 20
-6.340730528003633
 30
0.25
 10
0.0
 20
-6.795365264001816
 30
0.25
 10
0.0
 20
-7.25
 30
0.25
  0
SPLINE
  5
9E
330
1F
100
AcDbEntity
  8
Layer 03
100
AcDbSpline
210
0.0
220
0.0
230
1.0
 70
    24
 71
     2
 72
     6
 73
     3
 74
     0
 42
0.0000000001
 43
0.0000000001
 40
0.0
 40
0.0
 40
0.0
 40
0.125
 40
0.125
 40
0.125
 10
-1.375
 20
-5.0
 30
0.0
 10
-1.375
 20
-5.0
 30
0.125
 10
-1.375
 20
-5.0
 30
0.25
  0
SPLINE
  5
9F
330
1F
100
AcDbEntity
  8
Layer 03
100
AcDbSpline
210
0.0
220
0.0
230
1.0
 70
    24
 71
     2
 72
     6
 73
     3
 74
     0
 42
0.0000000001
 43
0.0000000001
 40
-10.75
 40
-10.75
 40
-10.75
 40
-6.75
 40
-6.75
 40
-6.75
 10
-1.375
 20
-7.25
 30
0.125
 10
-1.375
 20
-5.0
 30
0.125
 10
-1.375
 20
-2.75
 30
0.125
  0
LINE
  5
A0
330
1F
100
AcDbEntity
  8
Layer 03
100
AcDbLine
 10
0.0
 20
-2.75
 30
0.0
 11
0.0
 21
-2.75
 31
0.25
  0
POLYLINE
  5
A1
330
1F
100
AcDbEntity
  8
Layer 03
100
AcDb2dPolyline
 66
     1
 10
0.0
 20
0.0
 30
0.125
  0
VERTEX
  5
A2
330
A1
100
AcDbEntity
  8
Layer 03
100
AcDbVertex
100
AcDb2dVertex
 10
-1.375
 20
-2.75
 30
0.125
  0
VERTEX
  5
A3
330
A1
100
AcDbEntity
  8
Layer 03
100
AcDbVertex
100
AcDb2dVertex
 10
1.375
 20
-2.75
 30
0.125
  0
SEQEND
  5
A4
330
A1
100
AcDbEntity
  8
Layer 03
  0
SPLINE
  5
A5
330
1F
100
AcDbEntity
  8
Layer 03
100
AcDbSpline
210
0.0
220
0.0
230
1.0
 70
    24
 71
     2
 72
     6
 73
     3
 74
     0
 42
0.0000000001
 43
0.0000000001
 40
0.0
 40
0.0
 40
0.0
 40
0.125
 40
0.125
 40
0.125
 10
1.375
 20
-2.75
 30
0.125
 10
1.375
 20
-5.0
 30
0.125
 10
1.375
 20
-7.25
 30
0.125
  0
SPLINE
  5
A6
330
1F
100
AcDbEntity
  8
Layer 03
100
AcDbSpline
210
0.0
220
0.0
230
1.0
 70
    24
 71
     2
 72
     6
 73
     3
 74
     0
 42
0.0000000001
 43
0.0000000001
 40
-4.0
 40
-4.0
 40
-4.0
 40
0.0
 40
0.0
 40
0.0
 10
1.375
 20
-5.0
 30
0.25
 10
1.375
 20
-5.0
 30
0.125
 10
1.375
 20
-5.0
 30
0.0
  0
SPLINE
  5
A7
330
1F
100
AcDbEntity
  8
Layer 03
100
AcDbSpline
210
-1.0
220
-5.230212037173571E-16
230
2.010422778932339E-16
 70
    12
 71
     3
 72
    65
 73
    61
 74
     0
 42
0.0000000001
 43
0.0000000001
 40
0.1498487232775194
 40
0.1498487232775194
 40
0.1498487232775194
 40
0.1498487232775194
 40
4.500000000000001
 40
6.750000000000002
 40
9.000000000000002
 40
9.589047698120096
 40
10.17809539624019
 40
10.76714309436028
 40
11.35619079248038
 40
11.94523849060047
 40
12.53428618872056
 40
13.12333388684065
 40
13.71238158496074
 40
15.88310621607465
 40
18.05383084718857
 40
20.2245554783025
 40
21.30991779385946
 40
22.39528010941642
 40
22.83706501378718
 40
23.27884991815795
 40
23.72063482252872
 40
24.16241972689949
 40
25.04598953564102
 40
25.92955934438256
 40
26.81312915312409
 40
27.69669896186562
 40
29.46383857934869
 40
31.23097819683174
 40
32.9981178143148
 40
33.88168762305633
 40
34.76525743179786
 40
35.64882724053938
 40
36.09061214491015
 40
36.53239704928091
 40
37.78239704928092
 40
39.03239704928092
 40
41.53239704928092
 40
42.78239704928092
 40
44.03239704928092
 40
45.28239704928092
 40
46.53239704928092
 40
47.09783230114651
 40
47.3805499270793
 40
47.66326755301209
 40
47.94598517894488
 40
48.22870280487767
 40
48.51142043081046
 40
48.79413805674325
 40
50.01944716095193
 40
51.24475626516061
 40
52.47006536936929
 40
53.08271992147363
 40
53.69537447357797
 40
54.26080972544356
 40
54.82624497730914
 40
55.39168022917472
 40
55.95711548104031
 40
61.86336548104032
 40
67.76961548104032
 40
79.43204035545004
 40
79.43204035545004
 40
79.43204035545004
 40
79.43204035545004
 10
0.0000000000000002
 20
6.158050719257718
 30
0.3999885818701446
 41
1.0
 10
0.0000000000000018
 20
6.158243723520549
 30
1.851185502379912
 41
0.9999999999999998
 10
0.0
 20
6.157036688541017
 30
4.044137659032452
 41
1.0
 10
0.0
 20
6.160602338793872
 30
7.015328043847775
 41
1.0
 10
0.0000000000000085
 20
6.150773263067816
 30
8.654460988222146
 41
1.000000000000001
 10
0.0
 20
6.176516672388694
 30
9.947321456784811
 41
1.0
 10
0.0
 20
6.285887795999983
 30
10.65666322022238
 41
1.0
 10
0.0
 20
6.456050799008466
 30
11.33933345754163
 41
1.0
 10
-0.0000000000000019
 20
6.694369039513003
 30
12.00496573437637
 41
1.0
 10
0.0000000000000019
 20
6.996500858051075
 30
12.64418896133902
 41
0.9999999999999998
 10
0.0
 20
7.358939849437043
 30
13.24733475913183
 41
1.0
 10
-0.0000000000000038
 20
7.782807902783411
 30
13.82578836298301
 41
1.0
 10
-0.0000000000000061
 20
8.660376554442909
 30
14.73996847391073
 41
0.9999999999999999
 10
-0.0000000000000038
 20
9.788547960549195
 30
15.85404715791626
 41
1.0
 10
0.0000000000000019
 20
11.33490337512992
 30
17.40573504919935
 41
0.9999999999999998
 10
0.0
 20
12.6135566887464
 30
18.68256542191578
 41
1.0
 10
-0.0000000000000038
 20
13.62795337173263
 30
19.69890173561116
 41
1.0
 10
0.0
 20
14.27307620739342
 30
20.33930929959518
 41
1.0
 10
0.0000000000000019
 20
14.64960365253549
 30
20.72980287316863
 41
0.9999999999999998
 10
-0.0000000000000019
 20
14.86778573232601
 30
21.0056800721355
 41
1.0
 10
-0.0000000000000061
 20
15.06930054548176
 30
21.29839688943465
 41
0.9999999999999999
 10
-0.0000000000000019
 20
15.30710366392949
 30
21.70680999838499
 41
1.0
 10
-0.0000000000000061
 20
15.54701136923891
 30
22.24795038276838
 41
0.9999999999999999
 10
-0.0000000000000038
 20
15.73652203178984
 30
22.93288736875467
 41
1.0
 10
0.0
 20
15.8234130202159
 30
23.6380227858495
 41
1.0
 10
0.0
 20
15.80031700989962
 30
24.58524126571033
 41
1.0
 10
-0.0000000000000038
 20
15.51020315046089
 30
25.74314753011943
 41
1.0
 10
0.0000000000000019
 20
14.77357698040368
 30
26.971956114784
 41
0.9999999999999998
 10
0.0
 20
13.88910903684656
 30
27.7735604591938
 41
1.0
 10
0.0000000000000019
 20
13.06448614031768
 30
28.24027228922844
 41
0.9999999999999998
 10
-0.0000000000000019
 20
12.40221270388587
 30
28.49610393114185
 41
1.0
 10
-0.0000000000000038
 20
11.82301396594109
 30
28.62522250248887
 41
1.0
 10
-0.0000000000000019
 20
11.3576451971851
 30
28.67909432651957
 41
1.0
 10
-0.0000000000000061
 20
10.76048451253654
 30
28.6889825284981
 41
0.9999999999999999
 10
-0.0000000000000019
 20
9.739607708002925
 30
28.68545683564836
 41
1.0
 10
0.0000000000000019
 20
8.087007674394219
 30
28.68656627212854
 41
0.9999999999999998
 10
-0.0000000000000061
 20
6.415278126195756
 30
28.68611665044296
 41
0.9999999999999999
 10
-0.0000000000000061
 20
4.751105782287756
 30
28.68604731914639
 41
0.9999999999999999
 10
0.0
 20
3.496591565359495
 30
28.68636726709231
 41
1.0
 10
0.0
 20
2.262578595069016
 30
28.68478901336433
 41
1.0
 10
0.0000000000000085
 20
1.192227729068471
 30
28.68940349338899
 41
1.000000000000001
 10
-0.0000000000000061
 20
0.6206257571638831
 30
28.67709809276751
 41
0.9999999999999999
 10
-0.0000000000000019
 20
0.3223235985741563
 30
28.63933113414141
 41
1.0
 10
-0.0000000000000019
 20
0.0981698660624328
 30
28.60252553527958
 41
1.0
 10
-0.0000000000000019
 20
-0.1234373363702889
 30
28.5546594868449
 41
1.0
 10
-0.0000000000000038
 20
-0.3426074666428567
 30
28.49657862462651
 41
1.0
 10
-0.0000000000000061
 20
-0.5588076613657575
 30
28.42817686688845
 41
0.9999999999999999
 10
-0.0000000000000019
 20
-1.007898319980642
 30
28.26254084669848
 41
1.0
 10
0.0
 20
-1.659552483055762
 30
27.92398474807933
 41
1.0
 10
-0.0000000000000038
 20
-2.425417249977637
 30
27.30044277380006
 41
1.0
 10
-0.0000000000000085
 20
-2.944957250452386
 30
26.66216905697532
 41
0.9999999999999993
 10
0.0000000000000066
 20
-3.276544666095458
 30
26.09637263383423
 41
1.000000000000001
 10
-0.0000000000000042
 20
-3.47531979443057
 30
25.66004041156901
 41
0.9999999999999997
 10
0.0
 20
-3.626747145914116
 30
25.22008158285491
 41
1.0
 10
-0.0000000000000019
 20
-3.731355528601285
 30
24.77339892138142
 41
1.0
 10
-0.0000000000000019
 20
-3.80002459341688
 30
24.34482838266202
 41
1.0
 10
-0.0000000000000061
 20
-3.815539315404744
 30
22.14090864300351
 41
0.9999999999999999
 10
0.0
 20
-3.808244151245397
 30
17.95003828053111
 41
1.0
 10
0.0000000000000038
 20
-3.810883071443162
 30
10.15116379139762
 41
0.9999999999999996
 10
0.0000000000000065
 20
-3.809803580522656
 30
4.285737374793703
 41
1.000000000000001
 10
0.0000000000000002
 20
-3.809992261499094
 30
0.4000039508182939
 41
1.0
  0
SPLINE
  5
A8
330
1F
100
AcDbEntity
  8
Layer 03
100
AcDbSpline
 70
     4
 71
     3
 72
    65
 73
    61
 74
     0
 42
0.0000000001
 43
0.0000000001
 40
0.1499967963537144
 40
0.1499967963537144
 40
0.1499967963537144
 40
0.1499967963537144
 40
4.500000000000001
 40
6.750000000000002
 40
9.000000000000002
 40
9.589047698120096
 40
10.17809539624019
 40
10.76714309436028
 40
11.35619079248038
 40
11.94523849060047
 40
12.53428618872056
 40
13.12333388684065
 40
13.71238158496074
 40
15.88310621607465
 40
18.05383084718857
 40
20.2245554783025
 40
21.30991779385946
 40
22.39528010941642
 40
22.83706501378718
 40
23.27884991815795
 40
23.72063482252872
 40
24.16241972689949
 40
25.04598953564102
 40
25.92955934438256
 40
26.81312915312409
 40
27.69669896186562
 40
29.46383857934869
 40
31.23097819683174
 40
32.9981178143148
 40
33.88168762305633
 40
34.76525743179786
 40
35.64882724053938
 40
36.09061214491015
 40
36.53239704928091
 40
37.78239704928092
 40
39.03239704928092
 40
41.53239704928092
 40
42.78239704928092
 40
44.03239704928092
 40
45.28239704928092
 40
46.53239704928092
 40
47.09783230114651
 40
47.3805499270793
 40
47.66326755301209
 40
47.94598517894488
 40
48.22870280487767
 40
48.51142043081046
 40
48.79413805674325
 40
50.01944716095193
 40
51.24475626516061
 40
52.47006536936929
 40
53.08271992147363
 40
53.69537447357797
 40
54.26080972544356
 40
54.82624497730914
 40
55.39168022917472
 40
55.95711548104031
 40
61.86336548104032
 40
67.76961548104032
 40
79.43211538087037
 40
79.43211538087037
 40
79.43211538087037
 40
79.43211538087037
 10
-1.187500026610205
 20
7.345546861094644
 30
0.3999991682106026
 41
1.0
 10
-1.187500540761899
 20
7.345708327848632
 30
1.850019316284292
 41
0.9999999999999998
 10
-1.187512611077916
 20
7.344710994575882
 30
4.049883810856056
 41
1.0
 10
-1.187549245448537
 20
7.347717745433521
 30
7.000038457103191
 41
1.0
 10
-1.187577817747117
 20
7.339537336835104
 30
8.696267677598374
 41
1.000000000000001
 10
-1.18760003753637
 20
7.361043719183343
 30
9.839021421033117
 41
1.0
 10
-1.187612115329415
 20
7.452361333142342
 30
10.42239245554151
 41
1.0
 10
-1.187624804708548
 20
7.594388172195146
 30
10.99458213419494
 41
1.0
 10
-1.187638093508356
 20
7.793452105859142
 30
11.54970981137781
 41
1.0
 10
-1.187651969563488
 20
8.045249527863692
 30
12.08305282527141
 41
0.9999999999999998
 10
-1.187666420708496
 20
8.349387391980486
 30
12.58806253771166
 41
1.0
 10
-1.187681434778017
 20
8.697343394642274
 30
13.0650542851024
 41
1.0
 10
-1.187710930866962
 20
9.47153006225233
 30
13.86976857370128
 41
0.9999999999999999
 10
-1.187757878462552
 20
10.63938268342343
 30
15.02578245150453
 41
1.0
 10
-1.187826592024847
 20
12.17236052897589
 30
16.56319710638325
 41
0.9999999999999998
 10
-1.187888933835183
 20
13.45217270598864
 30
17.84120587049288
 41
1.0
 10
-1.187941551178429
 20
14.47441634311388
 30
18.86564044335207
 41
1.0
 10
-1.187974253895646
 20
15.09314426981162
 30
19.47846073958178
 41
1.0
 10
-1.187999419372117
 20
15.54863353118428
 30
19.9513134465603
 41
0.9999999999999998
 10
-1.188016556059994
 20
15.8232232927506
 30
20.29781339052201
 41
1.0
 10
-1.188033884571332
 20
16.07384370782504
 30
20.66212222065359
 41
0.9999999999999999
 10
-1.188057238174709
 20
16.37055920832728
 30
21.17153043406195
 41
1.0
 10
-1.188086884076347
 20
16.66967742126362
 30
21.84620668715916
 41
0.9999999999999999
 10
-1.188123144336192
 20
16.90604241307836
 30
22.70026754962359
 41
1.0
 10
-1.188160048715972
 20
17.01442950672794
 30
23.57950412810655
 41
1.0
 10
-1.188210058638276
 20
16.98569555138801
 30
24.76062113916688
 41
1.0
 10
-1.188273976051125
 20
16.62401498093279
 30
26.20448461543866
 41
1.0
 10
-1.188352596498801
 20
15.70557158119609
 30
27.73681665947605
 41
0.9999999999999998
 10
-1.188419439445624
 20
14.60266328932141
 30
28.73646853941922
 41
1.0
 10
-1.188473545115484
 20
13.57454016061599
 30
29.31851753453032
 41
0.9999999999999998
 10
-1.188514398966122
 20
12.7481338960121
 30
29.63759026243439
 41
1.0
 10
-1.188548638458531
 20
12.02765288597378
 30
29.79864587726209
 41
1.0
 10
-1.188576126293627
 20
11.44183607214632
 30
29.8658597803028
 41
1.0
 10
-1.188609383148921
 20
10.73070363713297
 30
29.87823221079361
 41
0.9999999999999999
 10
-1.188655398881026
 20
9.749845104234982
 30
29.87389292344979
 41
1.0
 10
-1.188733858527156
 20
8.08336289204637
 30
29.87537427306903
 41
0.9999999999999998
 10
-1.188812459288022
 20
6.416706153215036
 30
29.87491160058027
 41
0.9999999999999999
 10
-1.188890736150916
 20
4.750052086702635
 30
29.87492274286024
 41
0.9999999999999999
 10
-1.188949165595915
 20
3.499998751331759
 30
29.87539464240874
 41
1.0
 10
-1.189007200585536
 20
2.250003546765086
 30
29.87349868750483
 41
1.0
 10
-1.189054223774624
 20
1.228264807120525
 30
29.87931232230004
 41
1.000000000000001
 10
-1.189086154303118
 20
0.5287650837505682
 30
29.8640053564864
 41
0.9999999999999999
 10
-1.189103294817856
 20
0.1544643407206134
 30
29.81692491462274
 41
1.0
 10
-1.18911611409675
 20
-0.1246408945416153
 30
29.77103783775469
 41
1.0
 10
-1.189128895923462
 20
-0.4011489058860905
 30
29.71135616603489
 41
1.0
 10
-1.189141638952936
 20
-0.6744643392850126
 30
29.63893439486759
 41
1.0
 10
-1.189154341840157
 20
-0.9441181635547151
 30
29.55364028997932
 41
0.9999999999999999
 10
-1.189181074438766
 20
-1.504226003933299
 30
29.34709224495223
 41
1.0
 10
-1.189221510092935
 20
-2.316988636909407
 30
28.92489718173262
 41
1.0
 10
-1.1892749759343
 20
-3.272222514337815
 30
28.14724961888261
 41
1.0
 10
-1.189318677838254
 20
-3.920246289197391
 30
27.35126064416745
 41
0.9999999999999993
 10
-1.189353072833362
 20
-4.333849263824941
 30
26.64546935476669
 41
1.000000000000001
 10
-1.189377917023426
 20
-4.581797226987393
 30
26.10177036499881
 41
0.9999999999999997
 10
-1.189401822786976
 20
-4.770692262809291
 30
25.55118748625106
 41
1.0
 10
-1.189424805758309
 20
-4.901192926516658
 30
25.00103017282671
 41
1.0
 10
-1.189447502608844
 20
-4.986868926310415
 30
24.4404617718269
 41
1.0
 10
-1.189540428830361
 20
-5.006335781180989
 30
22.09476525506218
 41
0.9999999999999999
 10
-1.189691034553547
 20
-4.997424631959447
 30
17.968794642721
 41
1.0
 10
-1.189915943119293
 20
-5.00099659247187
 30
10.14388070010437
 41
0.9999999999999996
 10
-1.189998594900924
 20
-4.999753249064321
 30
4.287484362179161
 41
1.000000000000001
 10
-1.189999973388622
 20
-4.999990319398349
 30
0.3999994626685243
 41
1.0
  0
SPLINE
  5
A9
330
1F
100
AcDbEntity
  8
Layer 03
100
AcDbSpline
210
-1.0
220
-5.285337595603746E-16
230
3.964857241376511E-16
 70
    12
 71
     3
 72
    65
 73
    61
 74
     0
 42
0.0000000001
 43
0.0000000001
 40
0.150142044928582
 40
0.150142044928582
 40
0.150142044928582
 40
0.150142044928582
 40
4.500000000000001
 40
6.750000000000002
 40
9.000000000000002
 40
9.589047698120096
 40
10.17809539624019
 40
10.76714309436028
 40
11.35619079248038
 40
11.94523849060047
 40
12.53428618872056
 40
13.12333388684065
 40
13.71238158496074
 40
15.88310621607465
 40
18.05383084718857
 40
20.2245554783025
 40
21.30991779385946
 40
22.39528010941642
 40
22.83706501378718
 40
23.27884991815795
 40
23.72063482252872
 40
24.16241972689949
 40
25.04598953564102
 40
25.92955934438256
 40
26.81312915312409
 40
27.69669896186562
 40
29.46383857934869
 40
31.23097819683174
 40
32.9981178143148
 40
33.88168762305633
 40
34.76525743179786
 40
35.64882724053938
 40
36.09061214491015
 40
36.53239704928091
 40
37.78239704928092
 40
39.03239704928092
 40
41.53239704928092
 40
42.78239704928092
 40
44.03239704928092
 40
45.28239704928092
 40
46.53239704928092
 40
47.09783230114651
 40
47.3805499270793
 40
47.66326755301209
 40
47.94598517894488
 40
48.22870280487767
 40
48.51142043081046
 40
48.79413805674325
 40
50.01944716095193
 40
51.24475626516061
 40
52.47006536936929
 40
53.08271992147363
 40
53.69537447357797
 40
54.26080972544356
 40
54.82624497730914
 40
55.39168022917472
 40
55.95711548104031
 40
61.86336548104032
 40
67.76961548104032
 40
79.43219208154854
 40
79.43219208154854
 40
79.43219208154854
 40
79.43219208154854
 10
0.0000000000000002
 20
8.533042996246639
 30
0.4000067020337199
 41
1.0
 10
0.0000000000000018
 20
8.53317295166287
 30
1.848851866038054
 41
0.9999999999999998
 10
0.0
 20
8.532385281129118
 30
4.055628325576089
 41
1.0
 10
0.0
 20
8.53483315207319
 30
6.984748870358607
 41
1.0
 10
0.0000000000000085
 20
8.528301410602385
 30
8.738074366974603
 41
1.000000000000001
 10
0.0
 20
8.545570765978006
 30
9.730721385281424
 41
1.0
 10
0.0
 20
8.618834870284687
 30
10.18812169086063
 41
1.0
 10
0.0
 20
8.732725545381818
 30
10.64983081084824
 41
1.0
 10
-0.0000000000000019
 20
8.892535172205267
 30
11.09445388837924
 41
1.0
 10
0.0000000000000019
 20
9.093998197676303
 30
11.5219166892038
 41
0.9999999999999998
 10
0.0
 20
9.339834934523935
 30
11.92879031629148
 41
1.0
 10
-0.0000000000000038
 20
9.611878886501124
 30
12.30432020722179
 41
1.0
 10
-0.0000000000000061
 20
10.28268357006177
 30
12.99956867349183
 41
0.9999999999999999
 10
-0.0000000000000038
 20
11.49021740629765
 30
14.19751774509281
 41
1.0
 10
0.0000000000000019
 20
13.00981768282183
 30
15.72065916356715
 41
0.9999999999999998
 10
0.0
 20
14.29078872323092
 30
16.99984631906995
 41
1.0
 10
-0.0000000000000038
 20
15.32087931449511
 30
18.03237915109298
 41
1.0
 10
0.0
 20
15.91321233222981
 30
18.6176121795684
 41
1.0
 10
0.0000000000000019
 20
16.44766340983305
 30
19.17282401995196
 41
0.9999999999999998
 10
-0.0000000000000019
 20
16.77866085317519
 30
19.58994670890852
 41
1.0
 10
-0.0000000000000061
 20
17.07838687016829
 30
20.02584755187254
 41
0.9999999999999999
 10
-0.0000000000000019
 20
17.43401475272509
 30
20.6362508697389
 41
1.0
 10
-0.0000000000000061
 20
17.79234347328835
 30
21.44446299154994
 41
0.9999999999999999
 10
-0.0000000000000038
 20
18.07556279436688
 30
22.46764773049251
 41
1.0
 10
0.0
 20
18.20544599323999
 30
23.5209854703636
 41
1.0
 10
0.0
 20
18.1710740928764
 30
24.93600101262343
 41
1.0
 10
-0.0000000000000038
 20
17.73782681140468
 30
26.66582170075787
 41
1.0
 10
0.0000000000000019
 20
16.63756618198849
 30
28.50167720416812
 41
0.9999999999999998
 10
0.0
 20
15.31621754179628
 30
29.69937661964464
 41
1.0
 10
0.0000000000000019
 20
14.08459418091427
 30
30.3967627798322
 41
0.9999999999999998
 10
-0.0000000000000019
 20
13.09405508813835
 30
30.77907659372694
 41
1.0
 10
-0.0000000000000038
 20
12.23229180600648
 30
30.97206925203529
 41
1.0
 10
-0.0000000000000019
 20
11.52602694710754
 30
31.05262523408603
 41
1.0
 10
-0.0000000000000061
 20
10.7009227617294
 30
31.0674818930891
 41
0.9999999999999999
 10
-0.0000000000000019
 20
9.760082500467046
 30
31.06232901125123
 41
1.0
 10
0.0000000000000019
 20
8.079718109698515
 30
31.06418227400952
 41
0.9999999999999998
 10
-0.0000000000000061
 20
6.41813418023433
 30
31.0637065507176
 41
0.9999999999999999
 10
-0.0000000000000061
 20
4.748998391117522
 30
31.06379816657409
 41
0.9999999999999999
 10
0.0
 20
3.503405937304031
 30
31.06442201772515
 41
1.0
 10
0.0
 20
2.237428498461135
 30
31.06220836164536
 41
1.0
 10
0.0000000000000085
 20
1.264301885172586
 30
31.06922115121109
 41
1.000000000000001
 10
-0.0000000000000061
 20
0.4369044103372319
 30
31.0509126202053
 41
0.9999999999999999
 10
-0.0000000000000019
 20
-0.0133949171329082
 30
30.99451869510407
 41
1.0
 10
-0.0000000000000019
 20
-0.3474516551456634
 30
30.9395501402298
 41
1.0
 10
-0.0000000000000019
 20
-0.6788604754019064
 30
30.86805284522488
 41
1.0
 10
-0.0000000000000038
 20
-1.006321211927161
 30
30.78129016510867
 41
1.0
 10
-0.0000000000000061
 20
-1.329428665743687
 30
30.67910371307019
 41
0.9999999999999999
 10
-0.0000000000000019
 20
-2.000553687885927
 30
30.43164364320598
 41
1.0
 10
0.0
 20
-2.974424790763052
 30
29.9258096153859
 41
1.0
 10
-0.0000000000000038
 20
-4.119027778697999
 30
28.99405646396515
 41
1.0
 10
-0.0000000000000085
 20
-4.895535327942367
 30
28.04035223135957
 41
0.9999999999999993
 10
0.0000000000000066
 20
-5.391153861554431
 30
27.19456607569914
 41
1.000000000000001
 10
-0.0000000000000042
 20
-5.688274659544216
 30
26.54350031842861
 41
0.9999999999999997
 10
0.0
 20
-5.914637379704452
 30
25.88229338964722
 41
1.0
 10
-0.0000000000000019
 20
-6.071030324432044
 30
25.22866142427199
 41
1.0
 10
-0.0000000000000019
 20
-6.173713259203943
 30
24.53609516099178
 41
1.0
 10
-0.0000000000000061
 20
-6.197132246957213
 30
22.04862186712085
 41
0.9999999999999999
 10
0.0
 20
-6.186605112673504
 30
17.98755100491089
 41
1.0
 10
0.0000000000000038
 20
-6.191110119785956
 30
10.13659688225813
 41
0.9999999999999996
 10
0.0000000000000065
 20
-6.18970291453891
 30
4.289230389102878
 41
1.000000000000001
 10
0.0000000000000002
 20
-6.189988379288134
 30
0.3999932318803531
 41
1.0
  0
SPLINE
  5
AA
330
1F
100
AcDbEntity
  8
Layer 03
100
AcDbSpline
210
0.0
220
0.001609470322795116
230
0.9999987048018013
 70
    15
 71
     2
 72
    12
 73
     9
 74
     0
 42
0.0000000001
 43
0.0000000001
 40
-7.476990515543707
 40
-7.476990515543707
 40
-7.476990515543707
 40
-5.60774288665778
 40
-5.60774288665778
 40
-3.738495257771853
 40
-3.738495257771853
 40
-1.869247628885927
 40
-1.869247628885927
 40
0.0
 40
0.0
 40
0.0
 10
1.187523076354994
 20
7.345800970979074
 30
4.74995050440622
 41
1.0
 10
1.187523076354998
 20
6.158332124475189
 30
4.751861702749292
 41
0.7071067811865475
 10
0.0000000000000002
 20
6.158332124475188
 30
4.751861702749292
 41
1.0
 10
-1.187523076354996
 20
6.158332124475189
 30
4.751861702749292
 41
0.7071067811865475
 10
-1.187523076354994
 20
7.345800970979074
 30
4.74995050440622
 41
1.0
 10
-1.187523076354996
 20
8.53326981748296
 30
4.748039306063146
 41
0.7071067811865475
 10
0.0000000000000002
 20
8.533269817482964
 30
4.748039306063148
 41
1.0
 10
1.187523076354998
 20
8.53326981748296
 30
4.748039306063146
 41
0.7071067811865475
 10
1.187523076354994
 20
7.345800970979074
 30
4.74995050440622
 41
1.0
  0
SPLINE
  5
AB
330
1F
100
AcDbEntity
  8
Layer 03
100
AcDbSpline
210
0.0
220
0.0
230
1.0
 70
    15
 71
     2
 72
    12
 73
     9
 74
     0
 42
0.0000000001
 43
0.0000000001
 40
-7.476990515543707
 40
-7.476990515543707
 40
-7.476990515543707
 40
-5.60774288665778
 40
-5.60774288665778
 40
-3.738495257771853
 40
-3.738495257771853
 40
-1.869247628885927
 40
-1.869247628885927
 40
0.0
 40
0.0
 40
0.0
 10
1.187550904815895
 20
7.345527146057006
 30
6.99999240418079
 41
1.0
 10
1.187550904815891
 20
6.157976241241119
 30
6.999992404180789
 41
0.7071067811865477
 10
0.0000000000000019
 20
6.157976241241122
 30
6.999992404180789
 41
1.0
 10
-1.187550904815888
 20
6.157976241241119
 30
6.999992404180789
 41
0.7071067811865477
 10
-1.187550904815895
 20
7.345527146057006
 30
6.99999240418079
 41
1.0
 10
-1.187550904815888
 20
8.533078050872893
 30
6.999992404180789
 41
0.7071067811865477
 10
0.0000000000000019
 20
8.5330780508729
 30
6.999992404180789
 41
1.0
 10
1.187550904815891
 20
8.533078050872893
 30
6.999992404180789
 41
0.7071067811865477
 10
1.187550904815895
 20
7.345527146057006
 30
6.99999240418079
 41
1.0
  0
SPLINE
  5
AC
330
1F
100
AcDbEntity
  8
Layer 03
100
AcDbSpline
210
5.338370466868985E-16
220
0.03171081860033573
230
0.9994970855303665
 70
    15
 71
     2
 72
    12
 73
     9
 74
     0
 42
0.0000000001
 43
0.0000000001
 40
-7.476990515543707
 40
-7.476990515543707
 40
-7.476990515543707
 40
-5.60774288665778
 40
-5.60774288665778
 40
-3.738495257771853
 40
-3.738495257771853
 40
-1.869247628885927
 40
-1.869247628885927
 40
0.0
 40
0.0
 40
0.0
 10
1.187588689480959
 20
7.350920617614663
 30
9.249950080626338
 41
1.0
 10
1.187588689480959
 20
6.164400082037774
 30
9.287594550043963
 41
0.7071067811865476
 10
0.0000000000000039
 20
6.164400082037759
 30
9.287594550043963
 41
1.0
 10
-1.187588689480958
 20
6.164400082037774
 30
9.287594550043963
 41
0.7071067811865476
 10
-1.187588689480957
 20
7.350920617614663
 30
9.249950080626338
 41
1.0
 10
-1.187588689480958
 20
8.537441153191576
 30
9.212305611208714
 41
0.7071067811865476
 10
0.0000000000000039
 20
8.53744115319157
 30
9.212305611208716
 41
1.0
 10
1.187588689480959
 20
8.537441153191576
 30
9.212305611208714
 41
0.7071067811865476
 10
1.187588689480959
 20
7.350920617614663
 30
9.249950080626338
 41
1.0
  0
SPLINE
  5
AD
330
1F
100
AcDbEntity
  8
Layer 03
100
AcDbSpline
210
0.0
220
0.09801176020592776
230
0.9951852565534398
 70
    15
 71
     2
 72
    12
 73
     9
 74
     0
 42
0.0000000001
 43
0.0000000001
 40
-7.476990515543707
 40
-7.476990515543707
 40
-7.476990515543707
 40
-5.60774288665778
 40
-5.60774288665778
 40
-3.738495257771853
 40
-3.738495257771853
 40
-1.869247628885927
 40
-1.869247628885927
 40
0.0
 40
0.0
 40
0.0
 10
1.187600141494952
 20
7.374415606736354
 30
9.838070561235554
 41
1.0
 10
1.187600141494951
 20
6.192533455239808
 30
9.954469341524279
 41
0.7071067811865476
 10
0.0000000000000007
 20
6.192533455239803
 30
9.954469341524279
 41
1.0
 10
-1.18760014149495
 20
6.192533455239808
 30
9.954469341524279
 41
0.7071067811865476
 10
-1.187600141494951
 20
7.374415606736354
 30
9.838070561235554
 41
1.0
 10
-1.18760014149495
 20
8.556297758232917
 30
9.721671780946824
 41
0.7071067811865476
 10
0.0000000000000007
 20
8.556297758232914
 30
9.72167178094683
 41
1.0
 10
1.187600141494951
 20
8.556297758232917
 30
9.721671780946824
 41
0.7071067811865476
 10
1.187600141494952
 20
7.374415606736354
 30
9.838070561235554
 41
1.0
  0
SPLINE
  5
AE
330
1F
100
AcDbEntity
  8
Layer 03
100
AcDbSpline
210
0.0
220
-0.1950881493720578
230
-0.9807857125665044
 70
    15
 71
     2
 72
    12
 73
     9
 74
     0
 42
0.0000000001
 43
0.0000000001
 40
-7.476990515543707
 40
-7.476990515543707
 40
-7.476990515543707
 40
-5.60774288665778
 40
-5.60774288665778
 40
-3.738495257771853
 40
-3.738495257771853
 40
-1.869247628885927
 40
-1.869247628885927
 40
0.0
 40
0.0
 40
0.0
 10
1.18761221726043
 20
7.460812870657976
 30
10.42052889623234
 41
0.9999999999999999
 10
1.187612217260429
 20
6.296019775899509
 30
10.65221796586933
 41
0.7071067811865476
 10
0.0
 20
6.296019775899515
 30
10.65221796586933
 41
0.9999999999999999
 10
-1.187612217260424
 20
6.296019775899509
 30
10.65221796586933
 41
0.7071067811865476
 10
-1.18761221726043
 20
7.460812870657976
 30
10.42052889623234
 41
0.9999999999999999
 10
-1.187612217260424
 20
8.625605965416424
 30
10.18883982659536
 41
0.7071067811865476
 10
0.0
 20
8.625605965416428
 30
10.18883982659536
 41
0.9999999999999999
 10
1.187612217260429
 20
8.625605965416424
 30
10.18883982659536
 41
0.7071067811865476
 10
1.18761221726043
 20
7.460812870657976
 30
10.42052889623234
 41
0.9999999999999999
  0
SPLINE
  5
AF
330
1F
100
AcDbEntity
  8
Layer 03
100
AcDbSpline
210
0.0
220
-0.2902897445471961
230
-0.9569387985711123
 70
    15
 71
     2
 72
    12
 73
     9
 74
     0
 42
0.0000000001
 43
0.0000000001
 40
-7.476990515543707
 40
-7.476990515543707
 40
-7.476990515543707
 40
-5.60774288665778
 40
-5.60774288665778
 40
-3.738495257771853
 40
-3.738495257771853
 40
-1.869247628885927
 40
-1.869247628885927
 40
0.0
 40
0.0
 40
0.0
 10
1.187624904611996
 20
7.603894354630345
 30
10.99173846728318
 41
1.0
 10
1.187624904611993
 20
6.467410005257809
 30
11.33649379746088
 41
0.7071067811865475
 10
-0.0000000000000003
 20
6.467410005257809
 30
11.33649379746088
 41
1.0
 10
-1.18762490461199
 20
6.467410005257809
 30
11.33649379746088
 41
0.7071067811865475
 10
-1.187624904611994
 20
7.603894354630345
 30
10.99173846728318
 41
1.0
 10
-1.18762490461199
 20
8.740378704002872
 30
10.64698313710547
 41
0.7071067811865475
 10
-0.0000000000000003
 20
8.740378704002872
 30
10.64698313710547
 41
1.0
 10
1.187624904611993
 20
8.740378704002872
 30
10.64698313710547
 41
0.7071067811865475
 10
1.187624904611996
 20
7.603894354630345
 30
10.99173846728318
 41
1.0
  0
SPLINE
  5
B0
330
1F
100
AcDbEntity
  8
Layer 03
100
AcDbSpline
210
0.0
220
-0.3826798390271556
230
-0.9238810209124064
 70
    15
 71
     2
 72
    12
 73
     9
 74
     0
 42
0.0000000001
 43
0.0000000001
 40
-7.476990515543707
 40
-7.476990515543707
 40
-7.476990515543707
 40
-5.60774288665778
 40
-5.60774288665778
 40
-3.738495257771853
 40
-3.738495257771853
 40
-1.869247628885927
 40
-1.869247628885927
 40
0.0
 40
0.0
 40
0.0
 10
1.187638191384249
 20
7.802241020582568
 30
11.54607903416293
 41
1.0
 10
1.187638191384248
 20
6.705004635851933
 30
12.00056422606435
 41
0.7071067811865475
 10
-0.000000000000001
 20
6.705004635851925
 30
12.00056422606436
 41
1.0
 10
-1.187638191384242
 20
6.705004635851933
 30
12.00056422606435
 41
0.7071067811865475
 10
-1.187638191384244
 20
7.802241020582568
 30
11.54607903416293
 41
1.0
 10
-1.187638191384242
 20
8.899477405313204
 30
11.0915938422615
 41
0.7071067811865475
 10
-0.000000000000001
 20
8.899477405313199
 30
11.0915938422615
 41
1.0
 10
1.187638191384248
 20
8.899477405313204
 30
11.0915938422615
 41
0.7071067811865475
 10
1.187638191384249
 20
7.802241020582568
 30
11.54607903416293
 41
1.0
  0
SPLINE
  5
B1
330
1F
100
AcDbEntity
  8
Layer 03
100
AcDbSpline
210
1.674487480618090E-15
220
0.4713884347270903
230
0.8819257018624322
 70
    15
 71
     2
 72
    12
 73
     9
 74
     0
 42
0.0000000001
 43
0.0000000001
 40
-7.476990515543707
 40
-7.476990515543707
 40
-7.476990515543707
 40
-5.60774288665778
 40
-5.60774288665778
 40
-3.738495257771853
 40
-3.738495257771853
 40
-1.869247628885927
 40
-1.869247628885927
 40
0.0
 40
0.0
 40
0.0
 10
1.187652065411795
 20
8.053972934882399
 30
12.07833060836252
 41
0.9999999999999999
 10
1.187652065411797
 20
7.006552053525726
 30
12.63817605647738
 41
0.7071067811865474
 10
0.000000000000001
 20
7.006552053525723
 30
12.63817605647738
 41
0.9999999999999999
 10
-1.187652065411791
 20
7.006552053525726
 30
12.63817605647738
 41
0.7071067811865474
 10
-1.187652065411801
 20
8.053972934882399
 30
12.07833060836252
 41
0.9999999999999999
 10
-1.187652065411791
 20
9.101393816239055
 30
11.51848516024766
 41
0.7071067811865474
 10
0.000000000000001
 20
9.101393816239069
 30
11.51848516024766
 41
0.9999999999999999
 10
1.187652065411797
 20
9.101393816239055
 30
11.51848516024766
 41
0.7071067811865474
 10
1.187652065411795
 20
8.053972934882399
 30
12.07833060836252
 41
0.9999999999999999
  0
SPLINE
  5
B2
330
1F
100
AcDbEntity
  8
Layer 03
100
AcDbSpline
210
7.242769751613506E-16
220
0.5555654794783449
230
0.8314727884976132
 70
    15
 71
     2
 72
    12
 73
     9
 74
     0
 42
0.0000000001
 43
0.0000000001
 40
-7.476990515543707
 40
-7.476990515543707
 40
-7.476990515543707
 40
-5.60774288665778
 40
-5.60774288665778
 40
-3.738495257771853
 40
-3.738495257771853
 40
-1.869247628885927
 40
-1.869247628885927
 40
0.0
 40
0.0
 40
0.0
 10
1.187666514529247
 20
8.356690415071318
 30
12.58339287687007
 41
0.9999999999999999
 10
1.187666514529252
 20
7.369178026430443
 30
13.24321939347489
 41
0.7071067811865476
 10
-0.0000000000000003
 20
7.369178026430443
 30
13.24321939347489
 41
0.9999999999999999
 10
-1.187666514529246
 20
7.369178026430443
 30
13.24321939347489
 41
0.7071067811865476
 10
-1.187666514529248
 20
8.356690415071318
 30
12.58339287687007
 41
0.9999999999999999
 10
-1.187666514529246
 20
9.344202803712198
 30
11.92356636026525
 41
0.7071067811865476
 10
-0.0000000000000003
 20
9.344202803712195
 30
11.92356636026525
 41
0.9999999999999999
 10
1.187666514529252
 20
9.344202803712198
 30
11.92356636026525
 41
0.7071067811865476
 10
1.187666514529247
 20
8.356690415071318
 30
12.58339287687007
 41
0.9999999999999999
  0
SPLINE
  5
B3
330
1F
100
AcDbEntity
  8
Layer 03
100
AcDbSpline
210
0.0
220
0.6343881852342129
230
0.7730146379178353
 70
    15
 71
     2
 72
    12
 73
     9
 74
     0
 42
0.0000000001
 43
0.0000000001
 40
-7.476990515543707
 40
-7.476990515543707
 40
-7.476990515543707
 40
-5.60774288665778
 40
-5.60774288665778
 40
-3.738495257771853
 40
-3.738495257771853
 40
-1.869247628885927
 40
-1.869247628885927
 40
0.0
 40
0.0
 40
0.0
 10
1.18768152657121
 20
8.707439318550003
 30
13.05632911140529
 41
1.0
 10
1.187681526571215
 20
7.789344113325859
 30
13.809780239683
 41
0.7071067811865476
 10
-0.0000000000000034
 20
7.789344113325855
 30
13.809780239683
 41
1.0
 10
-1.187681526571209
 20
7.789344113325859
 30
13.809780239683
 41
0.7071067811865476
 10
-1.187681526571205
 20
8.707439318550003
 30
13.05632911140529
 41
1.0
 10
-1.187681526571209
 20
9.625534523774157
 30
12.30287798312758
 41
0.7071067811865476
 10
-0.0000000000000034
 20
9.62553452377414
 30
12.30287798312757
 41
1.0
 10
1.187681526571215
 20
9.625534523774157
 30
12.30287798312758
 41
0.7071067811865476
 10
1.18768152657121
 20
8.707439318550003
 30
13.05632911140529
 41
1.0
  0
SPLINE
  5
B4
330
1F
100
AcDbEntity
  8
Layer 03
100
AcDbSpline
210
0.0
220
0.6850605743741236
230
0.7284861079239574
 70
    15
 71
     2
 72
    12
 73
     9
 74
     0
 42
0.0000000001
 43
0.0000000001
 40
-7.476990515543707
 40
-7.476990515543707
 40
-7.476990515543707
 40
-5.60774288665778
 40
-5.60774288665778
 40
-3.738495257771853
 40
-3.738495257771853
 40
-1.869247628885927
 40
-1.869247628885927
 40
0.0
 40
0.0
 40
0.0
 10
1.187697089372286
 20
9.106589211696194
 30
13.48896125887407
 41
1.0
 10
1.187697089372287
 20
8.241714295421735
 30
14.30228041549225
 41
0.7071067811865474
 10
-0.0000000000000049
 20
8.241714295421726
 30
14.30228041549224
 41
1.0
 10
-1.187697089372285
 20
8.241714295421735
 30
14.30228041549225
 41
0.7071067811865474
 10
-1.187697089372282
 20
9.106589211696194
 30
13.48896125887407
 41
1.0
 10
-1.187697089372285
 20
9.971464127970684
 30
12.67564210225592
 41
0.7071067811865474
 10
-0.0000000000000049
 20
9.971464127970664
 30
12.67564210225591
 41
1.0
 10
1.187697089372287
 20
9.971464127970684
 30
12.67564210225592
 41
0.7071067811865474
 10
1.187697089372286
 20
9.106589211696194
 30
13.48896125887407
 41
1.0
  0
SPLINE
  5
B5
330
1F
100
AcDbEntity
  8
Layer 03
100
AcDbSpline
210
0.0
220
-0.7071088313296198
230
-0.707104731037531
 70
    15
 71
     2
 72
    12
 73
     9
 74
     0
 42
0.0000000001
 43
0.0000000001
 40
-7.476990515543707
 40
-7.476990515543707
 40
-7.476990515543707
 40
-5.60774288665778
 40
-5.60774288665778
 40
-3.738495257771853
 40
-3.738495257771853
 40
-1.869247628885927
 40
-1.869247628885927
 40
0.0
 40
0.0
 40
0.0
 10
1.18775899603427
 20
10.63779674649992
 30
15.02754207424038
 41
1.0
 10
1.187758996034268
 20
9.797926741071697
 30
15.86741694982741
 41
0.7071067811865478
 10
-0.0000000000000034
 20
9.797926741071697
 30
15.86741694982741
 41
1.0
 10
-1.187758996034266
 20
9.797926741071697
 30
15.86741694982741
 41
0.7071067811865478
 10
-1.187758996034267
 20
10.63779674649992
 30
15.02754207424038
 41
1.0
 10
-1.187758996034266
 20
11.47766675192812
 30
14.18766719865334
 41
0.7071067811865478
 10
-0.0000000000000034
 20
11.47766675192813
 30
14.18766719865335
 41
1.0
 10
1.187758996034268
 20
11.47766675192812
 30
14.18766719865334
 41
0.7071067811865478
 10
1.18775899603427
 20
10.63779674649992
 30
15.02754207424038
 41
1.0
  0
SPLINE
  5
B6
330
1F
100
AcDbEntity
  8
Layer 03
100
AcDbSpline
210
0.0
220
0.707108831329615
230
0.7071047310375359
 70
    15
 71
     2
 72
    12
 73
     9
 74
     0
 42
0.0000000001
 43
0.0000000001
 40
-7.476990515543707
 40
-7.476990515543707
 40
-7.476990515543707
 40
-5.60774288665778
 40
-5.60774288665778
 40
-3.738495257771853
 40
-3.738495257771853
 40
-1.869247628885927
 40
-1.869247628885927
 40
0.0
 40
0.0
 40
0.0
 10
1.187827608126526
 20
12.17282665678636
 30
16.56256308339205
 41
1.0
 10
1.187827608126524
 20
11.33290813542311
 30
17.40248647519546
 41
0.7071067811865474
 10
0.0000000000000006
 20
11.3329081354231
 30
17.40248647519546
 41
1.0
 10
-1.187827608126524
 20
11.33290813542311
 30
17.40248647519546
 41
0.7071067811865474
 10
-1.187827608126531
 20
12.17282665678636
 30
16.56256308339205
 41
1.0
 10
-1.187827608126524
 20
13.01274517814963
 30
15.72263969158865
 41
0.7071067811865474
 10
0.0000000000000006
 20
13.01274517814962
 30
15.72263969158865
 41
1.0
 10
1.187827608126524
 20
13.01274517814963
 30
15.72263969158865
 41
0.7071067811865474
 10
1.187827608126526
 20
12.17282665678636
 30
16.56256308339205
 41
1.0
  0
SPLINE
  5
B7
330
1F
100
AcDbEntity
  8
Layer 03
100
AcDbSpline
210
-3.173674947919392E-15
220
0.7060892174085626
230
0.7081228827395453
 70
    15
 71
     2
 72
    12
 73
     9
 74
     0
 42
0.0000000001
 43
0.0000000001
 40
-7.476990515543707
 40
-7.476990515543707
 40
-7.476990515543707
 40
-5.60774288665778
 40
-5.60774288665778
 40
-3.738495257771853
 40
-3.738495257771853
 40
-1.869247628885927
 40
-1.869247628885927
 40
0.0
 40
0.0
 40
0.0
 10
1.187902316828911
 20
13.70759977322954
 30
18.09748347717197
 41
1.0
 10
1.187902316828907
 20
12.86644536216737
 30
18.93622216829981
 41
0.7071067811865476
 10
-0.0000000000000011
 20
12.86644536216738
 30
18.93622216829981
 41
1.0
 10
-1.18790231682891
 20
12.86644536216737
 30
18.93622216829981
 41
0.7071067811865476
 10
-1.187902316828909
 20
13.70759977322954
 30
18.09748347717197
 41
1.0
 10
-1.18790231682891
 20
14.54875418429171
 30
17.25874478604411
 41
0.7071067811865476
 10
-0.0000000000000011
 20
14.54875418429171
 30
17.25874478604411
 41
1.0
 10
1.187902316828907
 20
14.54875418429171
 30
17.25874478604411
 41
0.7071067811865476
 10
1.187902316828911
 20
13.70759977322954
 30
18.09748347717197
 41
1.0
  0
SPLINE
  5
B8
330
1F
100
AcDbEntity
  8
Layer 03
100
AcDbSpline
210
1.586019636671613E-15
220
0.7071088313296228
230
0.7071047310375281
 70
    15
 71
     2
 72
    12
 73
     9
 74
     0
 42
0.0000000001
 43
0.0000000001
 40
-7.476990515543707
 40
-7.476990515543707
 40
-7.476990515543707
 40
-5.60774288665778
 40
-5.60774288665778
 40
-3.738495257771853
 40
-3.738495257771853
 40
-1.869247628885927
 40
-1.869247628885927
 40
0.0
 40
0.0
 40
0.0
 10
1.187941767152601
 20
14.47516058208661
 30
18.86488365821333
 41
1.0
 10
1.187941767152601
 20
13.63516133833593
 30
19.70488777287225
 41
0.7071067811865475
 10
-0.0000000000000026
 20
13.63516133833591
 30
19.70488777287225
 41
1.0
 10
-1.187941767152603
 20
13.63516133833593
 30
19.70488777287225
 41
0.7071067811865475
 10
-1.187941767152596
 20
14.47516058208661
 30
18.86488365821333
 41
1.0
 10
-1.187941767152603
 20
15.3151598258373
 30
18.02487954355441
 41
0.7071067811865475
 10
-0.0000000000000026
 20
15.31515982583729
 30
18.02487954355441
 41
1.0
 10
1.187941767152601
 20
15.3151598258373
 30
18.02487954355441
 41
0.7071067811865475
 10
1.187941767152601
 20
14.47516058208661
 30
18.86488365821333
 41
1.0
  0
SPLINE
  5
B9
330
1F
100
AcDbEntity
  8
Layer 03
100
AcDbSpline
210
-2.343195073558929E-15
220
0.6964777719431136
230
0.7175783672806452
 70
    15
 71
     2
 72
    12
 73
     9
 74
     0
 42
0.0000000001
 43
0.0000000001
 40
-7.476990515543707
 40
-7.476990515543707
 40
-7.476990515543707
 40
-5.60774288665778
 40
-5.60774288665778
 40
-3.738495257771853
 40
-3.738495257771853
 40
-1.869247628885927
 40
-1.869247628885927
 40
0.0
 40
0.0
 40
0.0
 10
1.187982513321271
 20
15.24132610344241
 30
19.6337341534128
 41
1.0
 10
1.187982513321266
 20
14.38903146805447
 30
20.46096682340479
 41
0.7071067811865476
 10
0.0000000000000006
 20
14.38903146805447
 30
20.46096682340479
 41
1.0
 10
-1.187982513321269
 20
14.38903146805447
 30
20.46096682340479
 41
0.7071067811865476
 10
-1.187982513321269
 20
15.24132610344241
 30
19.6337341534128
 41
1.0
 10
-1.187982513321269
 20
16.09362073883034
 30
18.80650148342082
 41
0.7071067811865476
 10
0.0000000000000006
 20
16.09362073883035
 30
18.80650148342082
 41
1.0
 10
1.187982513321266
 20
16.09362073883034
 30
18.80650148342082
 41
0.7071067811865476
 10
1.187982513321271
 20
15.24132610344241
 30
19.6337341534128
 41
1.0
  0
SPLINE
  5
BA
330
1F
100
AcDbEntity
  8
Layer 03
100
AcDbSpline
210
6.093238514129676E-15
220
0.6531642362288699
230
0.7572162706331376
 70
    15
 71
     2
 72
    12
 73
     9
 74
     0
 42
0.0000000001
 43
0.0000000001
 40
-7.476990515543707
 40
-7.476990515543707
 40
-7.476990515543707
 40
-5.60774288665778
 40
-5.60774288665778
 40
-3.738495257771853
 40
-3.738495257771853
 40
-1.869247628885927
 40
-1.869247628885927
 40
0.0
 40
0.0
 40
0.0
 10
1.187999452198072
 20
15.54329762379883
 30
19.95601458262677
 41
0.9999999999999999
 10
1.18799945219807
 20
14.64372510909121
 30
20.73197333746205
 41
0.7071067811865472
 10
0.0000000000000011
 20
14.64372510909119
 30
20.73197333746204
 41
0.9999999999999999
 10
-1.187999452198072
 20
14.64372510909121
 30
20.73197333746205
 41
0.7071067811865472
 10
-1.187999452198068
 20
15.54329762379883
 30
19.95601458262677
 41
0.9999999999999999
 10
-1.187999452198072
 20
16.44287013850648
 30
19.18005582779151
 41
0.7071067811865472
 10
0.0000000000000011
 20
16.44287013850646
 30
19.18005582779151
 41
0.9999999999999999
 10
1.18799945219807
 20
16.44287013850648
 30
19.18005582779151
 41
0.7071067811865472
 10
1.187999452198072
 20
15.54329762379883
 30
19.95601458262677
 41
0.9999999999999999
  0
SPLINE
  5
BB
330
1F
100
AcDbEntity
  8
Layer 03
100
AcDbSpline
210
1.045844122637851E-15
220
0.5957030769638355
230
0.8032047336114365
 70
    15
 71
     2
 72
    12
 73
     9
 74
     0
 42
0.0000000001
 43
0.0000000001
 40
-7.476990515543707
 40
-7.476990515543707
 40
-7.476990515543707
 40
-5.60774288665778
 40
-5.60774288665778
 40
-3.738495257771853
 40
-3.738495257771853
 40
-1.869247628885927
 40
-1.869247628885927
 40
0.0
 40
0.0
 40
0.0
 10
1.188016588030579
 20
15.81922840166862
 30
20.30078153821699
 41
1.0
 10
1.188016588030572
 20
14.86500785455356
 30
21.00848667519088
 41
0.7071067811865475
 10
-0.000000000000002
 20
14.86500785455355
 30
21.00848667519088
 41
1.0
 10
-1.188016588030574
 20
14.86500785455356
 30
21.00848667519088
 41
0.7071067811865475
 10
-1.188016588030571
 20
15.81922840166862
 30
20.30078153821699
 41
1.0
 10
-1.188016588030574
 20
16.77344894878369
 30
19.5930764012431
 41
0.7071067811865475
 10
-0.000000000000002
 20
16.77344894878368
 30
19.5930764012431
 41
1.0
 10
1.188016588030572
 20
16.77344894878369
 30
19.5930764012431
 41
0.7071067811865475
 10
1.188016588030579
 20
15.81922840166862
 30
20.30078153821699
 41
1.0
  0
SPLINE
  5
BC
330
1F
100
AcDbEntity
  8
Layer 03
100
AcDbSpline
210
0.0
220
-0.5349866485042697
230
-0.8448605127014571
 70
    15
 71
     2
 72
    12
 73
     9
 74
     0
 42
0.0000000001
 43
0.0000000001
 40
-7.476990515543707
 40
-7.476990515543707
 40
-7.476990515543707
 40
-5.60774288665778
 40
-5.60774288665778
 40
-3.738495257771853
 40
-3.738495257771853
 40
-1.869247628885927
 40
-1.869247628885927
 40
0.0
 40
0.0
 40
0.0
 10
1.188033915686535
 20
16.06916307620875
 30
20.66508010897438
 41
1.0
 10
1.188033915686529
 20
15.0654401330951
 30
21.30066239183692
 41
0.7071067811865475
 10
-0.0000000000000049
 20
15.0654401330951
 30
21.30066239183692
 41
1.0
 10
-1.188033915686529
 20
15.0654401330951
 30
21.30066239183692
 41
0.7071067811865475
 10
-1.188033915686531
 20
16.06916307620875
 30
20.66508010897438
 41
1.0
 10
-1.188033915686529
 20
17.07288601932238
 30
20.02949782611184
 41
0.7071067811865475
 10
-0.0000000000000049
 20
17.07288601932238
 30
20.02949782611184
 41
1.0
 10
1.188033915686529
 20
17.07288601932238
 30
20.02949782611184
 41
0.7071067811865475
 10
1.188033915686535
 20
16.06916307620875
 30
20.66508010897438
 41
1.0
  0
SPLINE
  5
BD
330
1F
100
AcDbEntity
  8
Layer 03
100
AcDbSpline
210
-4.831029023354651E-16
220
0.4713966756339787
230
0.881921297056168
 70
    15
 71
     2
 72
    12
 73
     9
 74
     0
 42
0.0000000001
 43
0.0000000001
 40
-7.476990515543707
 40
-7.476990515543707
 40
-7.476990515543707
 40
-5.60774288665778
 40
-5.60774288665778
 40
-3.738495257771853
 40
-3.738495257771853
 40
-1.869247628885927
 40
-1.869247628885927
 40
0.0
 40
0.0
 40
0.0
 10
1.1880514300337
 20
16.29159525568895
 30
21.04670611313231
 41
1.0
 10
1.188051430033692
 20
15.24382980480088
 30
21.6067483210271
 41
0.7071067811865475
 10
-0.0000000000000036
 20
15.24382980480088
 30
21.6067483210271
 41
1.0
 10
-1.188051430033693
 20
15.24382980480088
 30
21.6067483210271
 41
0.7071067811865475
 10
-1.188051430033692
 20
16.29159525568895
 30
21.04670611313231
 41
1.0
 10
-1.188051430033692
 20
17.33936070657703
 30
20.48666390523752
 41
0.7071067811865475
 10
-0.0000000000000036
 20
17.33936070657704
 30
20.48666390523752
 41
1.0
 10
1.188051430033692
 20
17.33936070657703
 30
20.48666390523752
 41
0.7071067811865475
 10
1.1880514300337
 20
16.29159525568895
 30
21.04670611313231
 41
1.0
  0
SPLINE
  5
BE
330
1F
100
AcDbEntity
  8
Layer 03
100
AcDbSpline
210
-5.104697831088212E-15
220
0.336897514397149
230
0.9415413239964685
 70
    15
 71
     2
 72
    12
 73
     9
 74
     0
 42
0.0000000001
 43
0.0000000001
 40
-7.476990515543707
 40
-7.476990515543707
 40
-7.476990515543707
 40
-5.60774288665778
 40
-5.60774288665778
 40
-3.738495257771853
 40
-3.738495257771853
 40
-1.869247628885927
 40
-1.869247628885927
 40
0.0
 40
0.0
 40
0.0
 10
1.188086998272665
 20
16.64924794397881
 30
21.85361491361713
 41
1.0
 10
1.188086998272664
 20
15.53061493860217
 30
22.25387847022274
 41
0.7071067811865476
 10
-0.0000000000000049
 20
15.53061493860218
 30
22.25387847022275
 41
1.0
 10
-1.188086998272665
 20
15.53061493860217
 30
22.25387847022274
 41
0.7071067811865476
 10
-1.188086998272661
 20
16.64924794397881
 30
21.85361491361713
 41
1.0
 10
-1.188086998272658
 20
17.76788094935544
 30
21.45335135701148
 41
0.7071067811865476
 10
-0.0000000000000049
 20
17.76788094935545
 30
21.45335135701149
 41
1.0
 10
1.188086998272664
 20
17.76788094935544
 30
21.45335135701148
 41
0.7071067811865476
 10
1.188086998272665
 20
16.64924794397881
 30
21.85361491361713
 41
1.0
  0
SPLINE
  5
BF
330
1F
100
AcDbEntity
  8
Layer 03
100
AcDbSpline
210
0.0
220
0.1950894162844408
230
0.9807854605640297
 70
    15
 71
     2
 72
    12
 73
     9
 74
     0
 42
0.0000000001
 43
0.0000000001
 40
-7.476990515543707
 40
-7.476990515543707
 40
-7.476990515543707
 40
-5.60774288665778
 40
-5.60774288665778
 40
-3.738495257771853
 40
-3.738495257771853
 40
-1.869247628885927
 40
-1.869247628885927
 40
0.0
 40
0.0
 40
0.0
 10
1.188123251689519
 20
16.88471276338417
 30
22.70446350229335
 41
1.0
 10
1.188123251689522
 20
15.71941875276904
 30
22.93625377393943
 41
0.7071067811865476
 10
-0.0000000000000036
 20
15.71941875276903
 30
22.93625377393943
 41
1.0
 10
-1.188123251689518
 20
15.71941875276904
 30
22.93625377393943
 41
0.7071067811865476
 10
-1.188123251689514
 20
16.88471276338417
 30
22.70446350229335
 41
1.0
 10
-1.188123251689516
 20
18.0500067739993
 30
22.47267323064727
 41
0.7071067811865476
 10
-0.0000000000000036
 20
18.05000677399931
 30
22.47267323064727
 41
1.0
 10
1.188123251689522
 20
18.0500067739993
 30
22.47267323064727
 41
0.7071067811865476
 10
1.188123251689519
 20
16.88471276338417
 30
22.70446350229335
 41
1.0
  0
SPLINE
  5
C0
330
1F
100
AcDbEntity
  8
Layer 03
100
AcDbSpline
210
-1.467116922341603E-16
220
0.04906594587634435
230
0.9987955411170295
 70
    15
 71
     2
 72
    12
 73
     9
 74
     0
 42
0.0000000001
 43
0.0000000001
 40
-7.476990515543707
 40
-7.476990515543707
 40
-7.476990515543707
 40
-5.60774288665778
 40
-5.60774288665778
 40
-3.738495257771853
 40
-3.738495257771853
 40
-1.869247628885927
 40
-1.869247628885927
 40
0.0
 40
0.0
 40
0.0
 10
1.188160149226297
 20
16.99277324670219
 30
23.58060432474193
 41
1.0
 10
1.188160149226301
 20
15.80604418752203
 30
23.6389025263163
 41
0.7071067811865475
 10
-0.0000000000000006
 20
15.80604418752202
 30
23.6389025263163
 41
1.0
 10
-1.188160149226292
 20
15.80604418752203
 30
23.6389025263163
 41
0.7071067811865475
 10
-1.188160149226296
 20
16.99277324670219
 30
23.58060432474193
 41
1.0
 10
-1.188160149226292
 20
18.17950230588237
 30
23.52230612316756
 41
0.7071067811865475
 10
-0.0000000000000006
 20
18.17950230588236
 30
23.52230612316757
 41
1.0
 10
1.188160149226301
 20
18.17950230588237
 30
23.52230612316756
 41
0.7071067811865475
 10
1.188160149226297
 20
16.99277324670219
 30
23.58060432474193
 41
1.0
  0
SPLINE
  5
C1
330
1F
100
AcDbEntity
  8
Layer 03
100
AcDbSpline
210
-1.828684030535576E-15
220
-0.09802775249448945
230
0.9951836814080499
 70
    15
 71
     2
 72
    12
 73
     9
 74
     0
 42
0.0000000001
 43
0.0000000001
 40
-7.476990515543707
 40
-7.476990515543707
 40
-7.476990515543707
 40
-5.60774288665778
 40
-5.60774288665778
 40
-3.738495257771853
 40
-3.738495257771853
 40
-1.869247628885927
 40
-1.869247628885927
 40
0.0
 40
0.0
 40
0.0
 10
1.188197649825032
 20
16.97116149847097
 30
24.46317303389822
 41
0.9999999999999999
 10
1.188197649825032
 20
15.78867475604246
 30
24.34669552338399
 41
0.7071067811865475
 10
-0.0000000000000003
 20
15.78867475604246
 30
24.34669552338399
 41
0.9999999999999999
 10
-1.188197649825027
 20
15.78867475604246
 30
24.34669552338399
 41
0.7071067811865475
 10
-1.188197649825031
 20
16.97116149847097
 30
24.46317303389822
 41
0.9999999999999999
 10
-1.188197649825027
 20
18.1536482408995
 30
24.57965054441246
 41
0.7071067811865475
 10
-0.0000000000000003
 20
18.15364824089948
 30
24.57965054441245
 41
0.9999999999999999
 10
1.188197649825032
 20
18.1536482408995
 30
24.57965054441246
 41
0.7071067811865475
 10
1.188197649825032
 20
16.97116149847097
 30
24.46317303389822
 41
0.9999999999999999
  0
SPLINE
  5
C2
330
1F
100
AcDbEntity
  8
Layer 03
100
AcDbSpline
210
1.050208799317849E-15
220
-0.3826834323650879
230
0.9238795325112875
 70
    15
 71
     2
 72
    12
 73
     9
 74
     0
 42
0.0000000001
 43
0.0000000001
 40
-7.476990515543707
 40
-7.476990515543707
 40
-7.476990515543707
 40
-5.60774288665778
 40
-5.60774288665778
 40
-3.738495257771853
 40
-3.738495257771853
 40
-1.869247628885927
 40
-1.869247628885927
 40
0.0
 40
0.0
 40
0.0
 10
1.188274295976504
 20
16.54327719506771
 30
26.17110059419053
 41
1.0
 10
1.188274295976505
 20
15.44545489400578
 30
25.71636770801504
 41
0.7071067811865476
 10
-0.0000000000000021
 20
15.44545489400577
 30
25.71636770801504
 41
1.0
 10
-1.1882742959765
 20
15.44545489400578
 30
25.71636770801504
 41
0.7071067811865476
 10
-1.188274295976501
 20
16.54327719506771
 30
26.17110059419053
 41
1.0
 10
-1.1882742959765
 20
17.64109949612968
 30
26.62583348036603
 41
0.7071067811865476
 10
-0.0000000000000021
 20
17.64109949612966
 30
26.62583348036603
 41
1.0
 10
1.188274295976505
 20
17.64109949612968
 30
26.62583348036603
 41
0.7071067811865476
 10
1.188274295976504
 20
16.54327719506771
 30
26.17110059419053
 41
1.0
  0
SPLINE
  5
C3
330
1F
100
AcDbEntity
  8
Layer 03
100
AcDbSpline
210
-9.482855726621711E-16
220
-0.6343930602430732
230
0.7730106371295472
 70
    15
 71
     2
 72
    12
 73
     9
 74
     0
 42
0.0000000001
 43
0.0000000001
 40
-7.476990515543707
 40
-7.476990515543707
 40
-7.476990515543707
 40
-5.60774288665778
 40
-5.60774288665778
 40
-3.738495257771853
 40
-3.738495257771853
 40
-1.869247628885927
 40
-1.869247628885927
 40
0.0
 40
0.0
 40
0.0
 10
1.188352861680214
 20
15.63806382277727
 30
27.68135836145845
 41
1.0
 10
1.18835286168022
 20
14.71945442003512
 30
26.92747555288853
 41
0.7071067811865476
 10
0.0000000000000006
 20
14.71945442003513
 30
26.92747555288853
 41
1.0
 10
-1.188352861680212
 20
14.71945442003512
 30
26.92747555288853
 41
0.7071067811865476
 10
-1.18835286168022
 20
15.63806382277727
 30
27.68135836145845
 41
1.0
 10
-1.188352861680212
 20
16.55667322551941
 30
28.43524117002838
 41
0.7071067811865476
 10
0.0000000000000006
 20
16.55667322551942
 30
28.43524117002838
 41
1.0
 10
1.18835286168022
 20
16.55667322551941
 30
28.43524117002838
 41
0.7071067811865476
 10
1.188352861680214
 20
15.63806382277727
 30
27.68135836145845
 41
1.0
  0
SPLINE
  5
C4
330
1F
100
AcDbEntity
  8
Layer 03
100
AcDbSpline
210
2.999587737302694E-15
220
-0.8314609103124978
230
0.5555832562472636
 70
    15
 71
     2
 72
    12
 73
     9
 74
     0
 42
0.0000000001
 43
0.0000000001
 40
-7.476990515543707
 40
-7.476990515543707
 40
-7.476990515543707
 40
-5.60774288665778
 40
-5.60774288665778
 40
-3.738495257771853
 40
-3.738495257771853
 40
-1.869247628885927
 40
-1.869247628885927
 40
0.0
 40
0.0
 40
0.0
 10
1.188433018472456
 20
14.33348279921124
 30
28.86384141246004
 41
0.9999999999999999
 10
1.188433018472457
 20
13.6731992675741
 30
27.87569077957803
 41
0.7071067811865474
 10
0.0000000000000008
 20
13.67319926757407
 30
27.87569077957802
 41
0.9999999999999999
 10
-1.188433018472454
 20
13.6731992675741
 30
27.87569077957803
 41
0.7071067811865474
 10
-1.188433018472456
 20
14.33348279921124
 30
28.86384141246004
 41
0.9999999999999999
 10
-1.188433018472454
 20
14.99376633084842
 30
29.85199204534206
 41
0.7071067811865474
 10
0.0000000000000008
 20
14.99376633084842
 30
29.85199204534205
 41
0.9999999999999999
 10
1.188433018472457
 20
14.99376633084842
 30
29.85199204534206
 41
0.7071067811865474
 10
1.188433018472456
 20
14.33348279921124
 30
28.86384141246004
 41
0.9999999999999999
  0
SPLINE
  5
C5
330
1F
100
AcDbEntity
  8
Layer 03
100
AcDbSpline
210
0.0
220
0.903990033020905
230
-0.4275535290450346
 70
    15
 71
     2
 72
    12
 73
     9
 74
     0
 42
0.0000000001
 43
0.0000000001
 40
-7.476990515543707
 40
-7.476990515543707
 40
-7.476990515543707
 40
-5.60774288665778
 40
-5.60774288665778
 40
-3.738495257771853
 40
-3.738495257771853
 40
-1.869247628885927
 40
-1.869247628885927
 40
0.0
 40
0.0
 40
0.0
 10
1.188473590881859
 20
13.56532117427018
 30
29.29894019812544
 41
0.9999999999999999
 10
1.188473590881858
 20
13.05718509631183
 30
28.22457191745968
 41
0.7071067811865475
 10
0.000000000000001
 20
13.05718509631182
 30
28.22457191745967
 41
0.9999999999999999
 10
-1.188473590881856
 20
13.05718509631183
 30
28.22457191745968
 41
0.7071067811865475
 10
-1.188473590881858
 20
13.56532117427018
 30
29.29894019812544
 41
0.9999999999999999
 10
-1.188473590881856
 20
14.07345725222854
 30
30.37330847879121
 41
0.7071067811865475
 10
0.000000000000001
 20
14.07345725222853
 30
30.37330847879121
 41
0.9999999999999999
 10
1.188473590881858
 20
14.07345725222854
 30
30.37330847879121
 41
0.7071067811865475
 10
1.188473590881859
 20
13.56532117427018
 30
29.29894019812544
 41
0.9999999999999999
  0
SPLINE
  5
C6
330
1F
100
AcDbEntity
  8
Layer 03
100
AcDbSpline
210
0.0
220
-0.9569370995693186
230
0.29029534523974
 70
    15
 71
     2
 72
    12
 73
     9
 74
     0
 42
0.0000000001
 43
0.0000000001
 40
-7.476990515543707
 40
-7.476990515543707
 40
-7.476990515543707
 40
-5.60774288665778
 40
-5.60774288665778
 40
-3.738495257771853
 40
-3.738495257771853
 40
-1.869247628885927
 40
-1.869247628885927
 40
0.0
 40
0.0
 40
0.0
 10
1.188514437889497
 20
12.74177207143842
 30
29.61662259741592
 41
1.0
 10
1.188514437889498
 20
12.39675186236887
 30
28.47928903842568
 41
0.7071067811865477
 10
-0.0000000000000017
 20
12.39675186236888
 30
28.47928903842568
 41
1.0
 10
-1.188514437889497
 20
12.39675186236887
 30
28.47928903842568
 41
0.7071067811865477
 10
-1.188514437889497
 20
12.74177207143842
 30
29.61662259741592
 41
1.0
 10
-1.188514437889497
 20
13.08679228050796
 30
30.75395615640615
 41
0.7071067811865477
 10
-0.0000000000000017
 20
13.08679228050796
 30
30.75395615640615
 41
1.0
 10
1.188514437889498
 20
13.08679228050796
 30
30.75395615640615
 41
0.7071067811865477
 10
1.188514437889497
 20
12.74177207143842
 30
29.61662259741592
 41
1.0
  0
SPLINE
  5
C7
330
1F
100
AcDbEntity
  8
Layer 03
100
AcDbSpline
210
-4.669503703274183E-15
220
-0.9892370454820001
230
0.1463217955263109
 70
    15
 71
     2
 72
    12
 73
     9
 74
     0
 42
0.0000000001
 43
0.0000000001
 40
-7.476990515543707
 40
-7.476990515543707
 40
-7.476990515543707
 40
-5.60774288665778
 40
-5.60774288665778
 40
-3.738495257771853
 40
-3.738495257771853
 40
-1.869247628885927
 40
-1.869247628885927
 40
0.0
 40
0.0
 40
0.0
 10
1.18855551843741
 20
11.88041268203385
 30
29.81031347062047
 41
1.0
 10
1.188555518437409
 20
11.70650429221875
 30
28.63457187240931
 41
0.7071067811865476
 10
-0.0000000000000031
 20
11.70650429221874
 30
28.6345718724093
 41
1.0
 10
-1.188555518437411
 20
11.70650429221875
 30
28.63457187240931
 41
0.7071067811865476
 10
-1.188555518437402
 20
11.88041268203385
 30
29.81031347062047
 41
1.0
 10
-1.188555518437411
 20
12.05432107184897
 30
30.98605506883166
 41
0.7071067811865476
 10
-0.0000000000000031
 20
12.05432107184896
 30
30.98605506883164
 41
1.0
 10
1.188555518437409
 20
12.05432107184897
 30
30.98605506883166
 41
0.7071067811865476
 10
1.18855551843741
 20
11.88041268203385
 30
29.81031347062047
 41
1.0
  0
SPLINE
  5
C8
330
1F
100
AcDbEntity
  8
Layer 03
100
AcDbSpline
210
-3.671209204741972E-15
220
-0.9972898305287548
230
0.07357305161489244
 70
    15
 71
     2
 72
    12
 73
     9
 74
     0
 42
0.0000000001
 43
0.0000000001
 40
-7.476990515543707
 40
-7.476990515543707
 40
-7.476990515543707
 40
-5.60774288665778
 40
-5.60774288665778
 40
-3.738495257771853
 40
-3.738495257771853
 40
-1.869247628885927
 40
-1.869247628885927
 40
0.0
 40
0.0
 40
0.0
 10
1.188576133458358
 20
11.44143830968935
 30
29.85873898317253
 41
1.0
 10
1.188576133458352
 20
11.3539911364742
 30
28.67338409246533
 41
0.7071067811865476
 10
-0.0000000000000026
 20
11.35399113647419
 30
28.67338409246533
 41
1.0
 10
-1.188576133458354
 20
11.3539911364742
 30
28.67338409246533
 41
0.7071067811865476
 10
-1.188576133458349
 20
11.44143830968935
 30
29.85873898317253
 41
1.0
 10
-1.188576133458354
 20
11.52888548290452
 30
31.04409387387973
 41
0.7071067811865476
 10
-0.0000000000000026
 20
11.52888548290452
 30
31.04409387387973
 41
1.0
 10
1.188576133458353
 20
11.52888548290452
 30
31.04409387387973
 41
0.7071067811865476
 10
1.188576133458358
 20
11.44143830968935
 30
29.85873898317253
 41
1.0
  0
SPLINE
  5
C9
330
1F
100
AcDbEntity
  8
Layer 03
100
AcDbSpline
210
0.0
220
0.9998419812502237
230
-0.01777674125444206
 70
    15
 71
     2
 72
    12
 73
     9
 74
     0
 42
0.0000000001
 43
0.0000000001
 40
-7.476990515543707
 40
-7.476990515543707
 40
-7.476990515543707
 40
-5.60774288665778
 40
-5.60774288665778
 40
-3.738495257771853
 40
-3.738495257771853
 40
-1.869247628885927
 40
-1.869247628885927
 40
0.0
 40
0.0
 40
0.0
 10
1.188596791467633
 20
11.00007344183342
 30
29.87270625645807
 41
1.0
 10
1.188596791467625
 20
10.97894880368867
 30
28.68456385434225
 41
0.7071067811865474
 10
-0.0000000000000041
 20
10.97894880368867
 30
28.68456385434225
 41
1.0
 10
-1.188596791467626
 20
10.97894880368867
 30
28.68456385434225
 41
0.7071067811865474
 10
-1.188596791467627
 20
11.00007344183342
 30
29.87270625645807
 41
1.0
 10
-1.188596791467626
 20
11.02119807997817
 30
31.06084865857389
 41
0.7071067811865474
 10
-0.0000000000000041
 20
11.02119807997818
 30
31.06084865857389
 41
1.0
 10
1.18859679146763
 20
11.02119807997817
 30
31.06084865857389
 41
0.7071067811865474
 10
1.188596791467633
 20
11.00007344183342
 30
29.87270625645807
 41
1.0
  0
SPLINE
  5
CA
330
1F
100
AcDbEntity
  8
Layer 03
100
AcDbSpline
210
0.0
220
1.0
230
7.472126886158023E-16
 70
    15
 71
     2
 72
    12
 73
     9
 74
     0
 42
0.0000000001
 43
0.0000000001
 40
-7.476990515543707
 40
-7.476990515543707
 40
-7.476990515543707
 40
-5.60774288665778
 40
-5.60774288665778
 40
-3.738495257771853
 40
-3.738495257771853
 40
-1.869247628885927
 40
-1.869247628885927
 40
0.0
 40
0.0
 40
0.0
 10
1.188655430016129
 20
9.749924156975558
 30
29.875
 41
1.0
 10
1.188655430016126
 20
9.74992415697557
 30
28.68634456998388
 41
0.7071067811865474
 10
-0.0000000000000023
 20
9.749924156975561
 30
28.68634456998387
 41
1.0
 10
-1.188655430016125
 20
9.74992415697557
 30
28.68634456998388
 41
0.7071067811865474
 10
-1.188655430016123
 20
9.749924156975558
 30
29.875
 41
1.0
 10
-1.188655430016125
 20
9.74992415697556
 30
31.06365543001613
 41
0.7071067811865474
 10
-0.0000000000000023
 20
9.749924156975561
 30
31.06365543001612
 41
1.0
 10
1.188655430016128
 20
9.74992415697556
 30
31.06365543001613
 41
0.7071067811865474
 10
1.188655430016129
 20
9.749924156975558
 30
29.875
 41
1.0
  0
SPLINE
  5
CB
330
1F
100
AcDbEntity
  8
Layer 03
100
AcDbSpline
210
-5.980051599579254E-15
220
-0.9999993011191147
230
0.001182269547103517
 70
    15
 71
     2
 72
    12
 73
     9
 74
     0
 42
0.0000000001
 43
0.0000000001
 40
-7.476990515543707
 40
-7.476990515543707
 40
-7.476990515543707
 40
-5.60774288665778
 40
-5.60774288665778
 40
-3.738495257771853
 40
-3.738495257771853
 40
-1.869247628885927
 40
-1.869247628885927
 40
0.0
 40
0.0
 40
0.0
 10
1.188714255375183
 20
8.499968901206628
 30
29.87484193382189
 41
0.9999999999999999
 10
1.188714255375185
 20
8.49856355658057
 30
28.68615899149469
 41
0.7071067811865475
 10
0.0
 20
8.498563556580581
 30
28.68615899149468
 41
0.9999999999999999
 10
-1.18871425537518
 20
8.49856355658057
 30
28.68615899149469
 41
0.7071067811865475
 10
-1.188714255375185
 20
8.499968901206628
 30
29.87484193382189
 41
0.9999999999999999
 10
-1.18871425537518
 20
8.501374245832658
 30
31.0635248761491
 41
0.7071067811865475
 10
0.0
 20
8.501374245832675
 30
31.06352487614909
 41
0.9999999999999999
 10
1.188714255375185
 20
8.501374245832658
 30
31.0635248761491
 41
0.7071067811865475
 10
1.188714255375183
 20
8.499968901206628
 30
29.87484193382189
 41
0.9999999999999999
  0
SPLINE
  5
CC
330
1F
100
AcDbEntity
  8
Layer 03
100
AcDbSpline
210
0.0
220
-0.9999999887842171
230
0.0001497717119037244
 70
    15
 71
     2
 72
    12
 73
     9
 74
     0
 42
0.0000000001
 43
0.0000000001
 40
-7.476990515543707
 40
-7.476990515543707
 40
-7.476990515543707
 40
-5.60774288665778
 40
-5.60774288665778
 40
-3.738495257771853
 40
-3.738495257771853
 40
-1.869247628885927
 40
-1.869247628885927
 40
0.0
 40
0.0
 40
0.0
 10
1.188832001512249
 20
6.000042859280182
 30
29.87495387071433
 41
0.9999999999999998
 10
1.188832001512246
 20
5.999864807242952
 30
28.68613100848457
 41
0.7071067811865474
 10
-0.0000000000000055
 20
5.999864807242963
 30
28.68613100848457
 41
0.9999999999999998
 10
-1.188832001512243
 20
5.999864807242952
 30
28.68613100848457
 41
0.7071067811865474
 10
-1.188832001512248
 20
6.000042859280182
 30
29.87495387071433
 41
0.9999999999999998
 10
-1.188832001512243
 20
6.000220911317405
 30
31.0637767329441
 41
0.7071067811865474
 10
-0.0000000000000055
 20
6.00022091131741
 30
31.0637767329441
 41
0.9999999999999998
 10
1.188832001512246
 20
6.000220911317405
 30
31.0637767329441
 41
0.7071067811865474
 10
1.188832001512249
 20
6.000042859280182
 30
29.87495387071433
 41
0.9999999999999998
  0
SPLINE
  5
CD
330
1F
100
AcDbEntity
  8
Layer 03
100
AcDbSpline
210
0.0
220
-1.0
230
1.045890760408094E-14
 70
    15
 71
     2
 72
    12
 73
     9
 74
     0
 42
0.0000000001
 43
0.0000000001
 40
-7.476990515543707
 40
-7.476990515543707
 40
-7.476990515543707
 40
-5.60774288665778
 40
-5.60774288665778
 40
-3.738495257771853
 40
-3.738495257771853
 40
-1.869247628885927
 40
-1.869247628885927
 40
0.0
 40
0.0
 40
0.0
 10
1.188890689783889
 20
4.750041622454873
 30
29.875
 41
0.9999999999999999
 10
1.188890689783884
 20
4.750041622454883
 30
28.68610931021613
 41
0.7071067811865474
 10
-0.0000000000000051
 20
4.75004162245488
 30
28.68610931021612
 41
0.9999999999999999
 10
-1.18889068978388
 20
4.750041622454883
 30
28.68610931021613
 41
0.7071067811865474
 10
-1.188890689783887
 20
4.750041622454873
 30
29.875
 41
0.9999999999999999
 10
-1.18889068978388
 20
4.750041622454885
 30
31.06389068978389
 41
0.7071067811865474
 10
-0.0000000000000051
 20
4.750041622454874
 30
31.06389068978387
 41
0.9999999999999999
 10
1.188890689783884
 20
4.750041622454885
 30
31.06389068978389
 41
0.7071067811865474
 10
1.188890689783889
 20
4.750041622454873
 30
29.875
 41
0.9999999999999999
  0
SPLINE
  5
CE
330
1F
100
AcDbEntity
  8
Layer 03
100
AcDbSpline
210
0.0
220
1.0
230
-7.470281274527899E-16
 70
    15
 71
     2
 72
    12
 73
     9
 74
     0
 42
0.0000000001
 43
0.0000000001
 40
-7.476990515543707
 40
-7.476990515543707
 40
-7.476990515543707
 40
-5.60774288665778
 40
-5.60774288665778
 40
-3.738495257771853
 40
-3.738495257771853
 40
-1.869247628885927
 40
-1.869247628885927
 40
0.0
 40
0.0
 40
0.0
 10
1.188949099853352
 20
3.500008439799127
 30
29.875
 41
1.0
 10
1.188949099853345
 20
3.500008439799123
 30
28.68605090014667
 41
0.7071067811865474
 10
-0.000000000000001
 20
3.500008439799126
 30
28.68605090014666
 41
1.0
 10
-1.188949099853346
 20
3.500008439799123
 30
28.68605090014667
 41
0.7071067811865474
 10
-1.188949099853352
 20
3.500008439799127
 30
29.875
 41
1.0
 10
-1.188949099853346
 20
3.500008439799126
 30
31.06394909985335
 41
0.7071067811865474
 10
-0.000000000000001
 20
3.50000843979913
 30
31.06394909985334
 41
1.0
 10
1.188949099853345
 20
3.500008439799126
 30
31.06394909985335
 41
0.7071067811865474
 10
1.188949099853352
 20
3.500008439799127
 30
29.875
 41
1.0
  0
SPLINE
  5
CF
330
1F
100
AcDbEntity
  8
Layer 03
100
AcDbSpline
210
0.0
220
-1.0
230
-5.415689661616810E-15
 70
    15
 71
     2
 72
    12
 73
     9
 74
     0
 42
0.0000000001
 43
0.0000000001
 40
-7.476990515543707
 40
-7.476990515543707
 40
-7.476990515543707
 40
-5.60774288665778
 40
-5.60774288665778
 40
-3.738495257771853
 40
-3.738495257771853
 40
-1.869247628885927
 40
-1.869247628885927
 40
0.0
 40
0.0
 40
0.0
 10
1.18900711546745
 20
2.250017633458234
 30
29.875
 41
1.0
 10
1.189007115467451
 20
2.250017633458242
 30
28.68599288453255
 41
0.7071067811865475
 10
0.0000000000000017
 20
2.25001763345823
 30
28.68599288453255
 41
1.0
 10
-1.189007115467449
 20
2.250017633458242
 30
28.68599288453255
 41
0.7071067811865475
 10
-1.189007115467447
 20
2.250017633458234
 30
29.875
 41
1.0
 10
-1.189007115467449
 20
2.250017633458241
 30
31.06400711546745
 41
0.7071067811865475
 10
0.0000000000000017
 20
2.250017633458229
 30
31.06400711546745
 41
1.0
 10
1.189007115467451
 20
2.250017633458241
 30
31.06400711546745
 41
0.7071067811865475
 10
1.18900711546745
 20
2.250017633458234
 30
29.875
 41
1.0
  0
SPLINE
  5
D0
330
1F
100
AcDbEntity
  8
Layer 03
100
AcDbSpline
210
1.541208380726742E-15
220
-0.9998692864971344
230
-0.01616817614053971
 70
    15
 71
     2
 72
    12
 73
     9
 74
     0
 42
0.0000000001
 43
0.0000000001
 40
-7.476990515543707
 40
-7.476990515543707
 40
-7.476990515543707
 40
-5.60774288665778
 40
-5.60774288665778
 40
-3.738495257771853
 40
-3.738495257771853
 40
-1.869247628885927
 40
-1.869247628885927
 40
0.0
 40
0.0
 40
0.0
 10
1.189064620373017
 20
1.000025012826335
 30
29.87269931579863
 41
1.0
 10
1.189064620373012
 20
1.019245159604791
 30
28.68409063917968
 41
0.7071067811865478
 10
0.000000000000002
 20
1.019245159604789
 30
28.68409063917968
 41
1.0
 10
-1.189064620373009
 20
1.019245159604791
 30
28.68409063917968
 41
0.7071067811865478
 10
-1.189064620373008
 20
1.000025012826335
 30
29.87269931579863
 41
1.0
 10
-1.189064620373009
 20
0.9808048660478711
 30
31.06130799241757
 41
0.7071067811865478
 10
0.000000000000002
 20
0.9808048660478738
 30
31.06130799241757
 41
1.0
 10
1.189064620373012
 20
0.9808048660478711
 30
31.06130799241757
 41
0.7071067811865478
 10
1.189064620373017
 20
1.000025012826335
 30
29.87269931579863
 41
1.0
  0
SPLINE
  5
D1
330
1F
100
AcDbEntity
  8
Layer 03
100
AcDbSpline
210
0.0
220
-0.9955986100769353
230
-0.09371983574929298
 70
    15
 71
     2
 72
    12
 73
     9
 74
     0
 42
0.0000000001
 43
0.0000000001
 40
-7.476990515543707
 40
-7.476990515543707
 40
-7.476990515543707
 40
-5.60774288665778
 40
-5.60774288665778
 40
-3.738495257771853
 40
-3.738495257771853
 40
-1.869247628885927
 40
-1.869247628885927
 40
0.0
 40
0.0
 40
0.0
 10
1.18909043363812
 20
0.4354164235653709
 30
29.84899939313825
 41
1.0
 10
1.189090433638117
 20
0.5468653899799805
 30
28.66506180756972
 41
0.7071067811865476
 10
-0.0000000000000041
 20
0.546865389979975
 30
28.66506180756973
 41
1.0
 10
-1.18909043363811
 20
0.5468653899799805
 30
28.66506180756972
 41
0.7071067811865476
 10
-1.189090433638115
 20
0.4354164235653709
 30
29.84899939313825
 41
1.0
 10
-1.18909043363811
 20
0.3239674571507488
 30
31.03293697870676
 41
0.7071067811865476
 10
-0.0000000000000041
 20
0.323967457150761
 30
31.03293697870678
 41
1.0
 10
1.189090433638117
 20
0.3239674571507488
 30
31.03293697870676
 41
0.7071067811865476
 10
1.18909043363812
 20
0.4354164235653709
 30
29.84899939313825
 41
1.0
  0
SPLINE
  5
D2
330
1F
100
AcDbEntity
  8
Layer 03
100
AcDbSpline
210
0.0
220
-0.990027020618504
230
-0.1408776009351681
 70
    15
 71
     2
 72
    12
 73
     9
 74
     0
 42
0.0000000001
 43
0.0000000001
 40
-7.476990515543707
 40
-7.476990515543707
 40
-7.476990515543707
 40
-5.60774288665778
 40
-5.60774288665778
 40
-3.738495257771853
 40
-3.738495257771853
 40
-1.869247628885927
 40
-1.869247628885927
 40
0.0
 40
0.0
 40
0.0
 10
1.189103288800006
 20
0.154734394388986
 30
29.81516212371102
 41
1.0
 10
1.1891032888
 20
0.3222524129792498
 30
28.6379177374927
 41
0.7071067811865476
 10
-0.0000000000000024
 20
0.3222524129792514
 30
28.6379177374927
 41
1.0
 10
-1.189103288799993
 20
0.3222524129792498
 30
28.6379177374927
 41
0.7071067811865476
 10
-1.189103288799996
 20
0.154734394388986
 30
29.81516212371102
 41
1.0
 10
-1.189103288799993
 20
-0.0127836242012771
 30
30.99240650992936
 41
0.7071067811865476
 10
-0.0000000000000024
 20
-0.0127836242012669
 30
30.99240650992935
 41
1.0
 10
1.1891032888
 20
-0.0127836242012771
 30
30.99240650992936
 41
0.7071067811865476
 10
1.189103288800006
 20
0.154734394388986
 30
29.81516212371102
 41
1.0
  0
SPLINE
  5
D3
330
1F
100
AcDbEntity
  8
Layer 03
100
AcDbSpline
210
9.400527388523540E-16
220
-0.9822897897687886
230
-0.1873680039814407
 70
    15
 71
     2
 72
    12
 73
     9
 74
     0
 42
0.0000000001
 43
0.0000000001
 40
-7.476990515543707
 40
-7.476990515543707
 40
-7.476990515543707
 40
-5.60774288665778
 40
-5.60774288665778
 40
-3.738495257771853
 40
-3.738495257771853
 40
-1.869247628885927
 40
-1.869247628885927
 40
0.0
 40
0.0
 40
0.0
 10
1.18911610785473
 20
-0.1242080238886564
 30
29.76873873861273
 41
1.0
 10
1.189116107854726
 20
0.0985942877422605
 30
28.60068212701743
 41
0.7071067811865477
 10
-0.0000000000000019
 20
0.0985942877422664
 30
28.60068212701744
 41
1.0
 10
-1.189116107854721
 20
0.0985942877422605
 30
28.60068212701743
 41
0.7071067811865477
 10
-1.189116107854719
 20
-0.1242080238886564
 30
29.76873873861273
 41
1.0
 10
-1.189116107854721
 20
-0.3470103355195778
 30
30.93679535020803
 41
0.7071067811865477
 10
-0.0000000000000019
 20
-0.347010335519578
 30
30.93679535020803
 41
1.0
 10
1.189116107854726
 20
-0.3470103355195778
 30
30.93679535020803
 41
0.7071067811865477
 10
1.18911610785473
 20
-0.1242080238886564
 30
29.76873873861273
 41
1.0
  0
SPLINE
  5
D4
330
1F
100
AcDbEntity
  8
Layer 03
100
AcDbSpline
210
1.973512421533084E-15
220
-0.972372136021162
230
-0.2334361349269707
 70
    15
 71
     2
 72
    12
 73
     9
 74
     0
 42
0.0000000001
 43
0.0000000001
 40
-7.476990515543707
 40
-7.476990515543707
 40
-7.476990515543707
 40
-5.60774288665778
 40
-5.60774288665778
 40
-3.738495257771853
 40
-3.738495257771853
 40
-1.869247628885927
 40
-1.869247628885927
 40
0.0
 40
0.0
 40
0.0
 10
1.189128889457265
 20
-0.4006168095618317
 30
29.70923281612697
 41
1.0
 10
1.189128889457258
 20
-0.1230311576769336
 30
28.55295701788095
 41
0.7071067811865477
 10
-0.0000000000000022
 20
-0.12303115767693
 30
28.55295701788095
 41
1.0
 10
-1.189128889457255
 20
-0.1230311576769336
 30
28.55295701788095
 41
0.7071067811865477
 10
-1.189128889457255
 20
-0.4006168095618317
 30
29.70923281612697
 41
1.0
 10
-1.189128889457255
 20
-0.678202461446742
 30
30.86550861437301
 41
0.7071067811865477
 10
-0.0000000000000022
 20
-0.6782024614467418
 30
30.865508614373
 41
1.0
 10
1.189128889457258
 20
-0.678202461446742
 30
30.86550861437301
 41
0.7071067811865477
 10
1.189128889457265
 20
-0.4006168095618317
 30
29.70923281612697
 41
1.0
  0
SPLINE
  5
D5
330
1F
100
AcDbEntity
  8
Layer 03
100
AcDbSpline
210
-1.178820382855609E-15
220
-0.9602981676523502
230
-0.2789756785161361
 70
    15
 71
     2
 72
    12
 73
     9
 74
     0
 42
0.0000000001
 43
0.0000000001
 40
-7.476990515543707
 40
-7.476990515543707
 40
-7.476990515543707
 40
-5.60774288665778
 40
-5.60774288665778
 40
-3.738495257771853
 40
-3.738495257771853
 40
-1.869247628885927
 40
-1.869247628885927
 40
0.0
 40
0.0
 40
0.0
 10
1.189141632262567
 20
-0.6738540710968094
 30
29.6367890059141
 41
1.0
 10
1.189141632262562
 20
-0.3421124773845732
 30
28.49485847537324
 41
0.7071067811865477
 10
-0.0000000000000039
 20
-0.342112477384579
 30
28.49485847537323
 41
1.0
 10
-1.189141632262565
 20
-0.3421124773845732
 30
28.49485847537324
 41
0.7071067811865477
 10
-1.189141632262561
 20
-0.6738540710968094
 30
29.6367890059141
 41
1.0
 10
-1.189141632262565
 20
-1.005595664809042
 30
30.77871953645497
 41
0.7071067811865477
 10
-0.0000000000000039
 20
-1.00559566480904
 30
30.77871953645496
 41
1.0
 10
1.189141632262562
 20
-1.005595664809042
 30
30.77871953645497
 41
0.7071067811865477
 10
1.189141632262567
 20
-0.6738540710968094
 30
29.6367890059141
 41
1.0
  0
SPLINE
  5
D6
330
1F
100
AcDbEntity
  8
Layer 03
100
AcDbSpline
210
4.126439694059140E-15
220
-0.9460918941952662
230
-0.3238983293226647
 70
    15
 71
     2
 72
    12
 73
     9
 74
     0
 42
0.0000000001
 43
0.0000000001
 40
-7.476990515543707
 40
-7.476990515543707
 40
-7.476990515543707
 40
-5.60774288665778
 40
-5.60774288665778
 40
-3.738495257771853
 40
-3.738495257771853
 40
-1.869247628885927
 40
-1.869247628885927
 40
0.0
 40
0.0
 40
0.0
 10
1.18915433492561
 20
-0.9433899759359983
 30
29.55155136517159
 41
1.0
 10
1.189154334925609
 20
-0.5582248735467983
 30
28.42650208795131
 41
0.7071067811865476
 10
-0.0000000000000054
 20
-0.5582248735467918
 30
28.42650208795131
 41
1.0
 10
-1.18915433492561
 20
-0.5582248735467983
 30
28.42650208795131
 41
0.7071067811865476
 10
-1.189154334925607
 20
-0.9433899759359983
 30
29.55155136517159
 41
1.0
 10
-1.18915433492561
 20
-1.328555078325215
 30
30.67660064239186
 41
0.7071067811865476
 10
-0.0000000000000054
 20
-1.328555078325212
 30
30.67660064239187
 41
1.0
 10
1.189154334925609
 20
-1.328555078325215
 30
30.67660064239186
 41
0.7071067811865476
 10
1.18915433492561
 20
-0.9433899759359983
 30
29.55155136517159
 41
1.0
  0
SPLINE
  5
D7
330
1F
100
AcDbEntity
  8
Layer 03
100
AcDbSpline
210
0.0
220
-0.9297873894819673
230
-0.3680970121588989
 70
    15
 71
     2
 72
    12
 73
     9
 74
     0
 42
0.0000000001
 43
0.0000000001
 40
-7.476990515543707
 40
-7.476990515543707
 40
-7.476990515543707
 40
-5.60774288665778
 40
-5.60774288665778
 40
-3.738495257771853
 40
-3.738495257771853
 40
-1.869247628885927
 40
-1.869247628885927
 40
0.0
 40
0.0
 40
0.0
 10
1.189166996101358
 20
-1.208585169006858
 30
29.45373920517148
 41
1.0
 10
1.189166996101358
 20
-0.7708552487425532
 30
28.34806394452848
 41
0.7071067811865476
 10
-0.0000000000000042
 20
-0.7708552487425412
 30
28.34806394452848
 41
1.0
 10
-1.189166996101356
 20
-0.7708552487425532
 30
28.34806394452848
 41
0.7071067811865476
 10
-1.189166996101353
 20
-1.208585169006858
 30
29.45373920517148
 41
1.0
 10
-1.189166996101356
 20
-1.646315089271175
 30
30.55941446581448
 41
0.7071067811865476
 10
-0.0000000000000042
 20
-1.646315089271171
 30
30.55941446581448
 41
1.0
 10
1.189166996101358
 20
-1.646315089271175
 30
30.55941446581448
 41
0.7071067811865476
 10
1.189166996101358
 20
-1.208585169006858
 30
29.45373920517148
 41
1.0
  0
SPLINE
  5
D8
330
1F
100
AcDbEntity
  8
Layer 03
100
AcDbSpline
210
0.0
220
-0.8358201292620573
230
-0.5490033802449289
 70
    15
 71
     2
 72
    12
 73
     9
 74
     0
 42
0.0000000001
 43
0.0000000001
 40
-7.476990515543707
 40
-7.476990515543707
 40
-7.476990515543707
 40
-5.60774288665778
 40
-5.60774288665778
 40
-3.738495257771853
 40
-3.738495257771853
 40
-1.869247628885927
 40
-1.869247628885927
 40
0.0
 40
0.0
 40
0.0
 10
1.189221357750063
 20
-2.29402028146959
 30
28.88992077557233
 41
1.0
 10
1.189221357750064
 20
-1.641133736205346
 30
27.89594562661648
 41
0.7071067811865477
 10
-0.0000000000000011
 20
-1.641133736205337
 30
27.89594562661648
 41
1.0
 10
-1.189221357750059
 20
-1.641133736205346
 30
27.89594562661648
 41
0.7071067811865477
 10
-1.189221357750059
 20
-2.29402028146959
 30
28.88992077557233
 41
1.0
 10
-1.189221357750059
 20
-2.946906826733842
 30
29.88389592452819
 41
0.7071067811865477
 10
-0.0000000000000011
 20
-2.946906826733838
 30
29.88389592452819
 41
1.0
 10
1.189221357750064
 20
-2.946906826733842
 30
29.88389592452819
 41
0.7071067811865477
 10
1.189221357750063
 20
-2.29402028146959
 30
28.88992077557233
 41
1.0
  0
SPLINE
  5
D9
330
1F
100
AcDbEntity
  8
Layer 03
100
AcDbSpline
210
0.0
220
-0.7071099585135392
230
-0.7071036038452787
 70
    15
 71
     2
 72
    12
 73
     9
 74
     0
 42
0.0000000001
 43
0.0000000001
 40
-7.476990515543707
 40
-7.476990515543707
 40
-7.476990515543707
 40
-5.60774288665778
 40
-5.60774288665778
 40
-3.738495257771853
 40
-3.738495257771853
 40
-1.869247628885927
 40
-1.869247628885927
 40
0.0
 40
0.0
 40
0.0
 10
1.18927480534153
 20
-3.242621623071661
 30
28.11765975108124
 41
1.0
 10
1.189274805341536
 20
-2.401681122252274
 30
27.276711692815
 41
0.7071067811865475
 10
-0.0000000000000041
 20
-2.401681122252274
 30
27.27671169281499
 41
1.0
 10
-1.189274805341531
 20
-2.401681122252274
 30
27.276711692815
 41
0.7071067811865475
 10
-1.189274805341529
 20
-3.242621623071661
 30
28.11765975108124
 41
1.0
 10
-1.189274805341529
 20
-4.083562123891056
 30
28.9586078093475
 41
0.7071067811865475
 10
-0.0000000000000041
 20
-4.083562123891047
 30
28.95860780934749
 41
1.0
 10
1.189274805341536
 20
-4.083562123891056
 30
28.9586078093475
 41
0.7071067811865475
 10
1.18927480534153
 20
-3.242621623071661
 30
28.11765975108124
 41
1.0
  0
SPLINE
  5
DA
330
1F
100
AcDbEntity
  8
Layer 03
100
AcDbSpline
210
-8.291836981899200E-16
220
-0.5490018570827505
230
-0.8358211297399052
 70
    15
 71
     2
 72
    12
 73
     9
 74
     0
 42
0.0000000001
 43
0.0000000001
 40
-7.476990515543707
 40
-7.476990515543707
 40
-7.476990515543707
 40
-5.60774288665778
 40
-5.60774288665778
 40
-3.738495257771853
 40
-3.738495257771853
 40
-1.869247628885927
 40
-1.869247628885927
 40
0.0
 40
0.0
 40
0.0
 10
1.189327229376349
 20
-4.014912362415936
 30
27.16906281268153
 41
1.0
 10
1.189327229376353
 20
-3.020850388968438
 30
26.51612183038327
 41
0.7071067811865475
 10
-0.0000000000000032
 20
-3.020850388968428
 30
26.51612183038327
 41
1.0
 10
-1.189327229376355
 20
-3.020850388968438
 30
26.51612183038327
 41
0.7071067811865475
 10
-1.189327229376359
 20
-4.014912362415936
 30
27.16906281268153
 41
1.0
 10
-1.189327229376349
 20
-5.008974335863436
 30
27.8220037949798
 41
0.7071067811865475
 10
-0.0000000000000032
 20
-5.008974335863432
 30
27.8220037949798
 41
1.0
 10
1.189327229376353
 20
-5.008974335863436
 30
27.8220037949798
 41
0.7071067811865475
 10
1.189327229376349
 20
-4.014912362415936
 30
27.16906281268153
 41
1.0
  0
SPLINE
  5
DB
330
1F
100
AcDbEntity
  8
Layer 03
100
AcDbSpline
210
9.723581441867846E-16
220
-0.4609478905988068
230
-0.8874272038609761
 70
    15
 71
     2
 72
    12
 73
     9
 74
     0
 42
0.0000000001
 43
0.0000000001
 40
-7.476990515543707
 40
-7.476990515543707
 40
-7.476990515543707
 40
-5.60774288665778
 40
-5.60774288665778
 40
-3.738495257771853
 40
-3.738495257771853
 40
-1.869247628885927
 40
-1.869247628885927
 40
0.0
 40
0.0
 40
0.0
 10
1.189353023341454
 20
-4.324563223165881
 30
26.64068734359281
 41
1.0
 10
1.189353023341454
 20
-3.26909899525837
 30
26.09245757630625
 41
0.7071067811865477
 10
0.0000000000000028
 20
-3.269098995258374
 30
26.09245757630626
 41
1.0
 10
-1.189353023341453
 20
-3.26909899525837
 30
26.09245757630625
 41
0.7071067811865477
 10
-1.189353023341456
 20
-4.324563223165881
 30
26.64068734359281
 41
1.0
 10
-1.189353023341452
 20
-5.380027451073374
 30
27.18891711087936
 41
0.7071067811865477
 10
0.0000000000000028
 20
-5.380027451073388
 30
27.18891711087936
 41
1.0
 10
1.189353023341454
 20
-5.380027451073374
 30
27.18891711087936
 41
0.7071067811865477
 10
1.189353023341454
 20
-4.324563223165881
 30
26.64068734359281
 41
1.0
  0
SPLINE
  5
DC
330
1F
100
AcDbEntity
  8
Layer 03
100
AcDbSpline
210
3.364239517006208E-16
220
-0.3680813554853481
230
-0.9297935877086208
 70
    15
 71
     2
 72
    12
 73
     9
 74
     0
 42
0.0000000001
 43
0.0000000001
 40
-7.476990515543707
 40
-7.476990515543707
 40
-7.476990515543707
 40
-5.60774288665778
 40
-5.60774288665778
 40
-3.738495257771853
 40
-3.738495257771853
 40
-1.869247628885927
 40
-1.869247628885927
 40
0.0
 40
0.0
 40
0.0
 10
1.189378520355109
 20
-4.578738873626615
 30
26.08355607799142
 41
1.0
 10
1.189378520355107
 20
-3.47286684238157
 30
25.64576979764381
 41
0.7071067811865476
 10
-0.0000000000000018
 20
-3.472866842381566
 30
25.64576979764381
 41
1.0
 10
-1.189378520355106
 20
-3.47286684238157
 30
25.64576979764381
 41
0.7071067811865476
 10
-1.189378520355105
 20
-4.578738873626615
 30
26.08355607799142
 41
1.0
 10
-1.189378520355106
 20
-5.684610904871674
 30
26.52134235833903
 41
0.7071067811865476
 10
-0.0000000000000018
 20
-5.684610904871663
 30
26.52134235833902
 41
1.0
 10
1.189378520355107
 20
-5.684610904871674
 30
26.52134235833903
 41
0.7071067811865476
 10
1.189378520355109
 20
-4.578738873626615
 30
26.08355607799142
 41
1.0
  0
SPLINE
  5
DD
330
1F
100
AcDbEntity
  8
Layer 03
100
AcDbSpline
210
0.0
220
-0.2789622009076486
230
-0.9603020829222234
 70
    15
 71
     2
 72
    12
 73
     9
 74
     0
 42
0.0000000001
 43
0.0000000001
 40
-7.476990515543707
 40
-7.476990515543707
 40
-7.476990515543707
 40
-5.60774288665778
 40
-5.60774288665778
 40
-3.738495257771853
 40
-3.738495257771853
 40
-1.869247628885927
 40
-1.869247628885927
 40
0.0
 40
0.0
 40
0.0
 10
1.189401776893563
 20
-4.761812497533337
 30
25.5487732054459
 41
1.0
 10
1.189401776893568
 20
-3.619627493751044
 30
25.21697506800022
 41
0.7071067811865474
 10
-0.000000000000001
 20
-3.619627493751053
 30
25.21697506800021
 41
1.0
 10
-1.189401776893567
 20
-3.619627493751044
 30
25.21697506800022
 41
0.7071067811865474
 10
-1.18940177689356
 20
-4.761812497533337
 30
25.5487732054459
 41
1.0
 10
-1.189401776893567
 20
-5.903997501315622
 30
25.88057134289161
 41
0.7071067811865474
 10
-0.000000000000001
 20
-5.903997501315613
 30
25.8805713428916
 41
1.0
 10
1.189401776893568
 20
-5.903997501315622
 30
25.88057134289161
 41
0.7071067811865474
 10
1.189401776893563
 20
-4.761812497533337
 30
25.5487732054459
 41
1.0
  0
SPLINE
  5
DE
330
1F
100
AcDbEntity
  8
Layer 03
100
AcDbSpline
210
-3.597543128686509E-15
220
-0.1873824985940217
230
-0.9822870248662871
 70
    15
 71
     2
 72
    12
 73
     9
 74
     0
 42
0.0000000001
 43
0.0000000001
 40
-7.476990515543707
 40
-7.476990515543707
 40
-7.476990515543707
 40
-5.60774288665778
 40
-5.60774288665778
 40
-3.738495257771853
 40
-3.738495257771853
 40
-1.869247628885927
 40
-1.869247628885927
 40
0.0
 40
0.0
 40
0.0
 10
1.189424758071518
 20
-4.893722149197723
 30
24.99929499156413
 41
1.0
 10
1.189424758071514
 20
-3.725365642289353
 30
24.77641760850711
 41
0.7071067811865475
 10
-0.0000000000000016
 20
-3.725365642289356
 30
24.7764176085071
 41
1.0
 10
-1.189424758071514
 20
-3.725365642289353
 30
24.77641760850711
 41
0.7071067811865475
 10
-1.189424758071509
 20
-4.893722149197723
 30
24.99929499156413
 41
1.0
 10
-1.189424758071514
 20
-6.062078656106094
 30
25.22217237462117
 41
0.7071067811865475
 10
-0.0000000000000016
 20
-6.062078656106094
 30
25.22217237462116
 41
1.0
 10
1.189424758071514
 20
-6.062078656106094
 30
25.22217237462117
 41
0.7071067811865475
 10
1.189424758071518
 20
-4.893722149197723
 30
24.99929499156413
 41
1.0
  0
SPLINE
  5
DF
330
1F
100
AcDbEntity
  8
Layer 03
100
AcDbSpline
210
0.0
220
0.09410850742265087
230
0.995561946254818
 70
    15
 71
     2
 72
    12
 73
     9
 74
     0
 42
0.0000000001
 43
0.0000000001
 40
-7.476990515543707
 40
-7.476990515543707
 40
-7.476990515543707
 40
-5.60774288665778
 40
-5.60774288665778
 40
-3.738495257771853
 40
-3.738495257771853
 40
-1.869247628885927
 40
-1.869247628885927
 40
0.0
 40
0.0
 40
0.0
 10
1.189447453128676
 20
-4.973371677528904
 30
24.43965104453597
 41
1.0
 10
1.189447453128671
 20
-3.789203056124288
 30
24.32771392006436
 41
0.7071067811865475
 10
-0.0000000000000021
 20
-3.789203056124292
 30
24.32771392006435
 41
1.0
 10
-1.189447453128666
 20
-3.789203056124288
 30
24.32771392006436
 41
0.7071067811865475
 10
-1.189447453128666
 20
-4.973371677528904
 30
24.43965104453597
 41
1.0
 10
-1.189447453128666
 20
-6.15754029893351
 30
24.5515881690076
 41
0.7071067811865475
 10
-0.0000000000000021
 20
-6.157540298933511
 30
24.5515881690076
 41
1.0
 10
1.189447453128671
 20
-6.15754029893351
 30
24.5515881690076
 41
0.7071067811865475
 10
1.189447453128676
 20
-4.973371677528904
 30
24.43965104453597
 41
1.0
  0
SPLINE
  5
E0
330
1F
100
AcDbEntity
  8
Layer 03
100
AcDbSpline
210
0.0
220
0.05272521211877802
230
0.9986090586445879
 70
    15
 71
     2
 72
    12
 73
     9
 74
     0
 42
0.0000000001
 43
0.0000000001
 40
-7.476990515543707
 40
-7.476990515543707
 40
-7.476990515543707
 40
-5.60774288665778
 40
-5.60774288665778
 40
-3.738495257771853
 40
-3.738495257771853
 40
-1.869247628885927
 40
-1.869247628885927
 40
0.0
 40
0.0
 40
0.0
 10
1.18946985130476
 20
-4.991389205066183
 30
23.87502896579861
 41
1.0
 10
1.189469851304755
 20
-3.803626400810766
 30
23.8123166909008
 41
0.7071067811865475
 10
-0.0000000000000029
 20
-3.803626400810769
 30
23.8123166909008
 41
1.0
 10
-1.18946985130475
 20
-3.803626400810766
 30
23.8123166909008
 41
0.7071067811865475
 10
-1.189469851304752
 20
-4.991389205066183
 30
23.87502896579861
 41
1.0
 10
-1.18946985130475
 20
-6.179152009321588
 30
23.93774124069644
 41
0.7071067811865475
 10
-0.0000000000000029
 20
-6.179152009321587
 30
23.93774124069643
 41
1.0
 10
1.189469851304755
 20
-6.179152009321588
 30
23.93774124069644
 41
0.7071067811865475
 10
1.18946985130476
 20
-4.991389205066183
 30
23.87502896579861
 41
1.0
  0
SPLINE
  5
E1
330
1F
100
AcDbEntity
  8
Layer 03
100
AcDbSpline
210
0.0
220
0.0
230
1.0
 70
    15
 71
     2
 72
    12
 73
     9
 74
     0
 42
0.0000000001
 43
0.0000000001
 40
-7.476990515543707
 40
-7.476990515543707
 40
-7.476990515543707
 40
-5.60774288665778
 40
-5.60774288665778
 40
-3.738495257771853
 40
-3.738495257771853
 40
-1.869247628885927
 40
-1.869247628885927
 40
0.0
 40
0.0
 40
0.0
 10
1.189683396284355
 20
-4.999999999999995
 30
17.9688036023269
 41
1.0
 10
1.189683396284356
 20
-3.810316603715645
 30
17.9688036023269
 41
0.7071067811865476
 10
-0.000000000000001
 20
-3.81031660371564
 30
17.9688036023269
 41
1.0
 10
-1.18968339628435
 20
-3.810316603715645
 30
17.9688036023269
 41
0.7071067811865476
 10
-1.189683396284354
 20
-4.999999999999995
 30
17.9688036023269
 41
1.0
 10
-1.18968339628435
 20
-6.189683396284352
 30
17.9688036023269
 41
0.7071067811865476
 10
-0.000000000000001
 20
-6.189683396284348
 30
17.9688036023269
 41
1.0
 10
1.189683396284356
 20
-6.189683396284352
 30
17.9688036023269
 41
0.7071067811865476
 10
1.189683396284355
 20
-4.999999999999995
 30
17.9688036023269
 41
1.0
  0
SPLINE
  5
E2
330
1F
100
AcDbEntity
  8
Layer 03
100
AcDbSpline
210
0.0
220
0.001970554515616606
230
0.9999980584555657
 70
    15
 71
     2
 72
    12
 73
     9
 74
     0
 42
0.0000000001
 43
0.0000000001
 40
-7.476990515543707
 40
-7.476990515543707
 40
-7.476990515543707
 40
-5.60774288665778
 40
-5.60774288665778
 40
-3.738495257771853
 40
-3.738495257771853
 40
-1.869247628885927
 40
-1.869247628885927
 40
0.0
 40
0.0
 40
0.0
 10
1.189851111648796
 20
-4.999678078994929
 30
12.06258575452648
 41
0.9999999999999997
 10
1.189851111648794
 20
-3.809890786576071
 30
12.06024120925274
 41
0.7071067811865474
 10
0.0000000000000029
 20
-3.809890786576075
 30
12.06024120925275
 41
0.9999999999999997
 10
-1.189851111648788
 20
-3.809890786576071
 30
12.06024120925274
 41
0.7071067811865474
 10
-1.189851111648792
 20
-4.999678078994929
 30
12.06258575452648
 41
0.9999999999999997
 10
-1.189851111648788
 20
-6.189465371413785
 30
12.06493029980022
 41
0.7071067811865474
 10
0.0000000000000029
 20
-6.189465371413783
 30
12.06493029980022
 41
0.9999999999999997
 10
1.189851111648794
 20
-6.189465371413785
 30
12.06493029980022
 41
0.7071067811865474
 10
1.189851111648796
 20
-4.999678078994929
 30
12.06258575452648
 41
0.9999999999999997
  0
SPLINE
  5
E3
330
1F
100
AcDbEntity
  8
Layer 03
100
AcDbSpline
210
0.669520305881642
220
0.7427937525820213
230
-3.372345537900124E-5
 70
    12
 71
     2
 72
     6
 73
     3
 74
     0
 42
0.0000000001
 43
0.0000000001
 40
0.0
 40
0.0
 40
0.0
 40
1.0
 40
1.0
 40
1.0
 10
0.9957752383975128
 20
-5.897594760458916
 30
0.2499999999999998
 41
0.9999999999999999
 10
0.8843097225179047
 20
-5.797124843974626
 30
0.2499999999290192
 41
0.7071233613362401
 10
0.8843079355963984
 20
-5.797116423517715
 30
0.3999930091640313
 41
0.9999999999999999
  0
SPLINE
  5
E4
330
1F
100
AcDbEntity
  8
Layer 03
100
AcDbSpline
210
-0.9977401878238089
220
-0.06719015987460726
230
4.163555255164224E-6
 70
    12
 71
     2
 72
     6
 73
     3
 74
     0
 42
0.0000000001
 43
0.0000000001
 40
0.0
 40
0.0
 40
0.0
 40
1.0
 40
1.0
 40
1.0
 10
0.0900910138487463
 20
-6.337876082142582
 30
0.25
 41
1.0
 10
0.0800064165851353
 20
-6.188124868769962
 30
0.2500000000240826
 41
0.7071329235031992
 10
0.0800062121545714
 20
-6.188112538748997
 30
0.3999890003860221
 41
1.0
  0
SPLINE
  5
E5
330
1F
100
AcDbEntity
  8
Layer 03
100
AcDbSpline
210
0.742699499090358
220
-0.6696248592413814
230
4.401012726407654E-5
 70
    12
 71
     2
 72
     6
 73
     3
 74
     0
 42
0.0000000001
 43
0.0000000001
 40
0.0
 40
0.0
 40
0.0
 40
1.0
 40
1.0
 40
1.0
 10
-0.897880611007297
 20
-5.99593974659266
 30
0.2499999999999999
 41
1.0
 10
-0.7973725686314217
 20
-5.884463489854403
 30
0.249999999931027
 41
0.7071254241439123
 10
-0.7973716690192749
 20
-5.8844526340523
 30
0.3999921466135058
 41
1.0
  0
SPLINE
  5
E6
330
1F
100
AcDbEntity
  8
Layer 03
100
AcDbSpline
210
0.03357426896613114
220
-0.9994362239625284
230
5.191254769201888E-5
 70
    12
 71
     2
 72
     6
 73
     3
 74
     0
 42
0.0000000001
 43
0.0000000001
 40
0.0
 40
0.0
 40
0.0
 40
1.0
 40
1.0
 40
1.0
 10
-1.340121879327855
 20
-5.045078781532946
 30
0.2499999999999999
 41
1.0
 10
-1.190107882747756
 20
-5.040039330141144
 30
0.2500000000185769
 41
0.7071075210966297
 10
-1.190108227196292
 20
-5.040031550455596
 30
0.3999996533185469
 41
1.0
  0
SPLINE
  5
E7
330
1F
100
AcDbEntity
  8
Layer 03
100
AcDbSpline
210
-0.6886072589540803
220
-0.7251344993594677
230
2.746711162471519E-5
 70
    12
 71
     2
 72
     6
 73
     3
 74
     0
 42
0.0000000001
 43
0.0000000001
 40
0.0
 40
0.0
 40
0.0
 40
1.0
 40
1.0
 40
1.0
 10
-0.9723804824918817
 20
-4.0766450824187
 30
0.2499999999999999
 41
1.0
 10
-0.8635303859315554
 20
-4.180012067020185
 30
0.2499999999341487
 41
0.7070939347304938
 10
-0.8635319963721825
 20
-4.18000485570159
 30
0.4000053899902584
 41
1.0
  0
SPLINE
  5
E8
330
1F
100
AcDbEntity
  8
Layer 03
100
AcDbSpline
210
0.9999999998590214
220
1.678923292289653E-5
230
2.807162724086504E-7
 70
    12
 71
     2
 72
     6
 73
     3
 74
     0
 42
0.0000000001
 43
0.0000000001
 40
0.0
 40
0.0
 40
0.0
 40
1.0
 40
1.0
 40
1.0
 10
-0.000022155828123
 20
-3.659058135135088
 30
0.25
 41
1.0
 10
-0.0000196355574614
 20
-3.809170452523882
 30
0.2500000000113874
 41
0.707089574796887
 10
-0.0000196777971689
 20
-3.809162696134372
 30
0.4000072771497406
 41
1.0
  0
SPLINE
  5
E9
330
1F
100
AcDbEntity
  8
Layer 03
100
AcDbSpline
210
-0.7251114000653717
220
0.6886315830382244
230
-1.837132081646149E-5
 70
    12
 71
     2
 72
     6
 73
     3
 74
     0
 42
0.0000000001
 43
0.0000000001
 40
0.0
 40
0.0
 40
0.0
 40
1.0
 40
1.0
 40
1.0
 10
0.9231929995929943
 20
-4.027930364600465
 30
0.2499999999999998
 41
1.0
 10
0.8198485723794691
 20
-4.136749396651155
 30
0.2499999999381
 41
0.7070934759543879
 10
0.8198505810583179
 20
-4.136743279711992
 30
0.4000056306974902
 41
1.0
  0
SPLINE
  5
EA
330
1F
100
AcDbEntity
  8
Layer 03
100
AcDbSpline
 70
     7
 71
     3
 72
    15
 73
    11
 74
     0
 42
0.0000000001
 43
0.0000000001
 40
-0.0000096806343493
 40
-0.0000096806343493
 40
-0.0000096806343493
 40
-0.0000096806343493
 40
0.9830408704568305
 40
2.014772371321824
 40
3.087823550788261
 40
4.164567241761452
 40
5.227297114118959
 40
6.314382226258656
 40
7.332107143601176
 40
8.41917953201777
 40
8.41917953201777
 40
8.41917953201777
 40
8.41917953201777
 10
1.233933975015833
 20
-4.999990319367904
 30
0.2939339640166518
 41
0.8535534532778319
 10
1.235017197347263
 20
-5.301535671976589
 30
0.2939331883766061
 41
0.853555922181556
 10
0.9971171809422323
 20
-5.918980870250008
 30
0.2939312676111314
 41
0.8535625424408282
 10
0.0794686849964626
 20
-6.366254317923831
 30
0.2939295761751057
 41
0.8535681705116833
 10
-0.9213070852597252
 20
-6.020058574057897
 30
0.2939309132630897
 41
0.8535636935729201
 10
-1.372023959151886
 20
-5.050590263294555
 30
0.2939340095142304
 41
0.853553254858199
 10
-0.9914596944981423
 20
-4.048000083085108
 30
0.2939361620690733
 41
0.8535460526417031
 10
-0.0214190230957007
 20
-3.631510130671638
 30
0.2939367455704446
 41
0.8535441696505293
 10
0.9569715437406247
 20
-4.023701235793619
 30
0.2939361894766013
 41
0.853546018509711
 10
1.236026560234982
 20
-4.665958794486771
 30
0.2939348512987579
 41
0.8535504868052112
 10
1.233933975015833
 20
-4.999990319367904
 30
0.2939339640166518
 41
0.8535534532778319
  0
SPLINE
  5
EB
330
1F
100
AcDbEntity
  8
Layer 03
100
AcDbSpline
 70
     7
 71
     3
 72
    15
 73
    11
 74
     0
 42
0.0000000001
 43
0.0000000001
 40
0.0000197151300375
 40
0.0000197151300375
 40
0.0000197151300375
 40
0.0000197151300375
 40
1.0183585563259
 40
2.100881352566613
 40
3.119246121736184
 40
4.219024766158125
 40
5.25220003829197
 40
6.337128149319278
 40
7.353031860754386
 40
8.403466277526876
 40
8.403466277526876
 40
8.403466277526876
 40
8.403466277526876
 10
1.231433990627848
 20
7.345546861191394
 30
0.2939340016267042
 41
0.8535533279109861
 10
1.232927884684996
 20
7.657325232268986
 30
0.2939355169424904
 41
0.8535482817356785
 10
0.9738488293424045
 20
8.302390832136764
 30
0.2939380212849422
 41
0.853539873641511
 10
0.0207885693112266
 20
8.711000008553757
 30
0.2939390818813399
 41
0.8535363659851825
 10
-0.9624418026395682
 20
8.31766226533944
 30
0.2939380712601827
 41
0.853539667738251
 10
-1.369921390628181
 20
7.349178651202705
 30
0.2939343452423027
 41
0.8535520666084668
 10
-0.9555006756917103
 20
6.366638541100151
 30
0.2939286925972369
 41
0.8535711491649575
 10
0.0137024449795676
 20
5.979781258375395
 30
0.2939259747770576
 41
0.8535802442016265
 10
0.9695152164394546
 20
6.391674522476857
 30
0.2939288383068275
 41
0.8535707513575794
 10
1.233068142206454
 20
7.022986097295298
 30
0.293932487208363
 41
0.8535581523812572
 10
1.231433990627848
 20
7.345546861191393
 30
0.2939340016267042
 41
0.8535533279109866
  0
SPLINE
  5
EC
330
1F
100
AcDbEntity
  8
Layer 03
100
AcDbSpline
210
-0.6900602492644911
220
0.7237519265148422
230
-3.537065348581279E-5
 70
    12
 71
     2
 72
     6
 73
     3
 74
     0
 42
0.0000000001
 43
0.0000000001
 40
0.0
 40
0.0
 40
0.0
 40
1.0
 40
1.0
 40
1.0
 10
0.9686327756386379
 20
8.269017528922104
 30
0.2500000000000002
 41
1.0
 10
0.8599973672143899
 20
8.165439252623514
 30
0.2499999998662676
 41
0.7070831019674786
 10
0.8600012271282184
 20
8.165450264027985
 30
0.40001001036776
 41
1.0
  0
SPLINE
  5
ED
330
1F
100
AcDbEntity
  8
Layer 03
100
AcDbSpline
210
0.9999999769118232
220
-0.000214886259803107
230
-4.984020698385016E-7
 70
    12
 71
     2
 72
     6
 73
     3
 74
     0
 42
0.0000000001
 43
0.0000000001
 40
0.0
 40
0.0
 40
0.0
 40
1.0
 40
1.0
 40
1.0
 10
0.0002869248334235
 20
8.683928323344283
 30
0.2500000000000002
 41
1.0
 10
0.0002546674846092
 20
8.533814732558247
 30
0.2500000000449621
 41
0.7070749929925438
 10
0.0002547453273503
 20
8.533829045849812
 30
0.4000134413615017
 41
1.0
  0
SPLINE
  5
EE
330
1F
100
AcDbEntity
  8
Layer 03
100
AcDbSpline
210
-0.7237727650369506
220
-0.6900383921069039
230
4.482505748544875E-5
 70
    12
 71
     2
 72
     6
 73
     3
 74
     0
 42
0.0000000001
 43
0.0000000001
 40
0.0
 40
0.0
 40
0.0
 40
1.0
 40
1.0
 40
1.0
 10
-0.9235781880599031
 20
8.314183962380568
 30
0.2500000000000005
 41
1.0
 10
-0.8199963602189204
 20
8.20553825976227
 30
0.2499999998603077
 41
0.7070820101097411
 10
-0.81999949309681
 20
8.205551290511805
 30
0.4000104213058
 41
1.0
  0
SPLINE
  5
EF
330
1F
100
AcDbEntity
  8
Layer 03
100
AcDbSpline
210
0.01265513496012857
220
-0.9999199162093793
230
9.341824629372575E-5
 70
    12
 71
     2
 72
     6
 73
     3
 74
     0
 42
0.0000000001
 43
0.0000000001
 40
0.0
 40
0.0
 40
0.0
 40
1.0
 40
1.0
 40
1.0
 10
-1.338310512136869
 20
7.328484137757016
 30
0.2500000000000008
 41
1.0
 10
-1.188218561873789
 20
7.330383723770078
 30
0.2500000000560328
 41
0.7071069206354491
 10
-1.188219603382761
 20
7.330397724435547
 30
0.3999998687640579
 41
1.0
  0
SPLINE
  5
F0
330
1F
100
AcDbEntity
  8
Layer 03
100
AcDbSpline
210
0.7071392670523569
220
-0.70707428894694
230
8.308329958597325E-5
 70
    12
 71
     2
 72
     6
 73
     3
 74
     0
 42
0.0000000001
 43
0.0000000001
 40
0.0
 40
0.0
 40
0.0
 40
1.0
 40
1.0
 40
1.0
 10
-0.9462524351291502
 20
6.399055961535496
 30
0.2500000000000003
 41
1.0
 10
-0.8401324983800026
 20
6.505185650403386
 30
0.2499999998621355
 41
0.7071386323952343
 10
-0.8401308318660701
 20
6.505204940932549
 30
0.3999865773368755
 41
1.0
  0
SPLINE
  5
F1
330
1F
100
AcDbEntity
  8
Layer 03
100
AcDbSpline
210
-0.9996685934408875
220
-0.02574302379760475
230
3.697744436430660E-6
 70
    12
 71
     2
 72
     6
 73
     3
 74
     0
 42
0.0000000001
 43
0.0000000001
 40
0.0
 40
0.0
 40
0.0
 40
1.0
 40
1.0
 40
1.0
 10
0.0344505332287179
 20
6.007557556654054
 30
0.2500000000000001
 41
0.9999999999999999
 10
0.0305869524738044
 20
6.157590449808944
 30
0.2500000000313763
 41
0.7071542614609894
 10
0.0305869303413315
 20
6.157612852497053
 30
0.3999800228915125
 41
0.9999999999999999
  0
SPLINE
  5
F2
330
1F
100
AcDbEntity
  8
Layer 03
100
AcDbSpline
210
0.7069913080385217
220
0.7072222327076902
230
-6.262531196219203E-5
 70
    12
 71
     2
 72
     6
 73
     3
 74
     0
 42
0.0000000001
 43
0.0000000001
 40
0.0
 40
0.0
 40
0.0
 40
1.0
 40
1.0
 40
1.0
 10
0.9462925462289967
 20
6.399450509802302
 30
0.2499999999999999
 41
1.0
 10
0.8401693336054615
 20
6.505539070704438
 30
0.2499999998682512
 41
0.7071386292077212
 10
0.8401664466287168
 20
6.505555238217042
 30
0.399986588378705
 41
1.0
  0
CIRCLE
  5
F3
330
1F
100
AcDbEntity
  8
Layer 03
100
AcDbCircle
 10
0.875
 20
-6.75
 30
0.125
 40
0.25
  0
LINE
  5
F4
330
1F
100
AcDbEntity
  8
Layer 03
100
AcDbLine
 10
1.125
 20
-6.75
 30
0.0
 11
1.125
 21
-6.75
 31
0.2500000000000001
  0
LINE
  5
F5
330
1F
100
AcDbEntity
  8
Layer 03
100
AcDbLine
 10
0.875
 20
-7.0
 30
0.0
 11
0.875
 21
-7.0
 31
0.2500000000000001
  0
LINE
  5
F6
330
1F
100
AcDbEntity
  8
Layer 03
100
AcDbLine
 10
0.625
 20
-6.75
 30
0.0
 11
0.625
 21
-6.75
 31
0.2500000000000001
  0
CIRCLE
  5
F7
330
1F
100
AcDbEntity
  8
Layer 03
100
AcDbCircle
 10
-0.875
 20
-3.25
 30
0.125
 40
0.25
  0
LINE
  5
F8
330
1F
100
AcDbEntity
  8
Layer 03
100
AcDbLine
 10
-0.625
 20
-3.25
 30
0.0
 11
-0.625
 21
-3.25
 31
0.25
  0
LINE
  5
F9
330
1F
100
AcDbEntity
  8
Layer 03
100
AcDbLine
 10
-0.875
 20
-3.5
 30
0.0
 11
-0.875
 21
-3.5
 31
0.25
  0
LINE
  5
FA
330
1F
100
AcDbEntity
  8
Layer 03
100
AcDbLine
 10
-1.125
 20
-3.25
 30
0.0
 11
-1.125
 21
-3.25
 31
0.25
  0
CIRCLE
  5
FB
330
1F
100
AcDbEntity
  8
Layer 03
100
AcDbCircle
 10
-0.875
 20
5.625
 30
0.125
 40
0.25
  0
LINE
  5
FC
330
1F
100
AcDbEntity
  8
Layer 03
100
AcDbLine
 10
-0.625
 20
5.625
 30
0.0
 11
-0.625
 21
5.625
 31
0.25
  0
LINE
  5
FD
330
1F
100
AcDbEntity
  8
Layer 03
100
AcDbLine
 10
-0.875
 20
5.875
 30
0.0
 11
-0.875
 21
5.875
 31
0.25
  0
LINE
  5
FE
330
1F
100
AcDbEntity
  8
Layer 03
100
AcDbLine
 10
-1.125
 20
5.625
 30
0.0
 11
-1.125
 21
5.625
 31
0.25
  0
CIRCLE
  5
FF
330
1F
100
AcDbEntity
  8
Layer 03
100
AcDbCircle
 10
0.875
 20
9.125
 30
0.125
 40
0.25
  0
LINE
  5
100
330
1F
100
AcDbEntity
  8
Layer 03
100
AcDbLine
 10
1.125
 20
9.125
 30
0.0
 11
1.125
 21
9.125
 31
0.2500000000000001
  0
LINE
  5
101
330
1F
100
AcDbEntity
  8
Layer 03
100
AcDbLine
 10
0.875
 20
9.375
 30
0.0
 11
0.875
 21
9.375
 31
0.2500000000000001
  0
LINE
  5
102
330
1F
100
AcDbEntity
  8
Layer 03
100
AcDbLine
 10
0.625
 20
9.125
 30
0.0
 11
0.625
 21
9.125
 31
0.2500000000000001
  0
ENDSEC
  0
SECTION
  2
OBJECTS
  0
DICTIONARY
  5
C
330
0
100
AcDbDictionary
281
     1
  3
ACAD_GROUP
350
D
  3
ACAD_LAYOUT
350
1A
  3
ACAD_MLEADERSTYLE
350
104
  3
ACAD_MLINESTYLE
350
17
  3
ACAD_PLOTSETTINGS
350
19
  3
ACAD_PLOTSTYLENAME
350
E
  3
ACAD_TABLESTYLE
350
103
  3
ACAD_VISUALSTYLE
350
2A
  0
DICTIONARY
  5
D
102
{ACAD_REACTORS
330
C
102
}
330
C
100
AcDbDictionary
281
     1
  0
DICTIONARY
  5
1A
102
{ACAD_REACTORS
330
C
102
}
330
C
100
AcDbDictionary
281
     1
  3
Layout1
350
1E
  3
Layout2
350
26
  3
Model
350
22
  0
DICTIONARY
  5
104
102
{ACAD_REACTORS
330
C
102
}
330
C
100
AcDbDictionary
281
     1
  0
DICTIONARY
  5
17
102
{ACAD_REACTORS
330
C
102
}
330
C
100
AcDbDictionary
281
     1
  3
Standard
350
18
  0
DICTIONARY
  5
19
102
{ACAD_REACTORS
330
C
102
}
330
C
100
AcDbDictionary
281
     1
  0
ACDBDICTIONARYWDFLT
  5
E
102
{ACAD_REACTORS
330
C
102
}
330
C
100
AcDbDictionary
281
     1
  3
Normal
350
F
100
AcDbDictionaryWithDefault
340
F
  0
DICTIONARY
  5
103
102
{ACAD_REACTORS
330
C
102
}
330
C
100
AcDbDictionary
281
     1
  0
DICTIONARY
  5
2A
102
{ACAD_REACTORS
330
C
102
}
330
C
100
AcDbDictionary
281
     1
  3
2dWireframe
350
2F
  3
3D Hidden
350
31
  3
3dWireframe
350
30
  3
Basic
350
32
  3
Brighten
350
36
  3
ColorChange
350
3A
  3
Conceptual
350
34
  3
Dim
350
35
  3
Facepattern
350
39
  3
Flat
350
2B
  3
FlatWithEdges
350
2C
  3
Gouraud
350
2D
  3
GouraudWithEdges
350
2E
  3
Linepattern
350
38
  3
Realistic
350
33
  3
Thicken
350
37
  0
LAYOUT
  5
1E
102
{ACAD_REACTORS
330
1A
102
}
330
1A
100
AcDbPlotSettings
  1

  2
none_device
  4

  6

 40
0.0
 41
0.0
 42
0.0
 43
0.0
 44
0.0
 45
0.0
 46
0.0
 47
0.0
 48
0.0
 49
0.0
140
0.0
141
0.0
142
1.0
143
1.0
 70
   688
 72
     0
 73
     0
 74
     5
  7

 75
    16
 76
     0
 77
     2
 78
   300
147
1.0
148
0.0
149
0.0
100
AcDbLayout
  1
Layout1
 70
     1
 71
     1
 10
0.0
 20
0.0
 11
12.0
 21
9.0
 12
0.0
 22
0.0
 32
0.0
 14
1.000000000000000E+20
 24
1.000000000000000E+20
 34
1.000000000000000E+20
 15
-1.000000000000000E+20
 25
-1.000000000000000E+20
 35
-1.000000000000000E+20
146
0.0
 13
0.0
 23
0.0
 33
0.0
 16
1.0
 26
0.0
 36
0.0
 17
0.0
 27
1.0
 37
0.0
 76
     0
330
1B
  0
LAYOUT
  5
26
102
{ACAD_REACTORS
330
1A
102
}
330
1A
100
AcDbPlotSettings
  1

  2
none_device
  4

  6

 40
0.0
 41
0.0
 42
0.0
 43
0.0
 44
0.0
 45
0.0
 46
0.0
 47
0.0
 48
0.0
 49
0.0
140
0.0
141
0.0
142
1.0
143
1.0
 70
   688
 72
     0
 73
     0
 74
     5
  7

 75
    16
 76
     0
 77
     2
 78
   300
147
1.0
148
0.0
149
0.0
100
AcDbLayout
  1
Layout2
 70
     1
 71
     2
 10
0.0
 20
0.0
 11
0.0
 21
0.0
 12
0.0
 22
0.0
 32
0.0
 14
0.0
 24
0.0
 34
0.0
 15
0.0
 25
0.0
 35
0.0
146
0.0
 13
0.0
 23
0.0
 33
0.0
 16
1.0
 26
0.0
 36
0.0
 17
0.0
 27
1.0
 37
0.0
 76
     0
330
23
  0
LAYOUT
  5
22
102
{ACAD_REACTORS
330
1A
102
}
330
1A
100
AcDbPlotSettings
  1

  2
none_device
  4

  6

 40
0.0
 41
0.0
 42
0.0
 43
0.0
 44
0.0
 45
0.0
 46
0.0
 47
0.0
 48
0.0
 49
0.0
140
0.0
141
0.0
142
1.0
143
1.0
 70
  1712
 72
     0
 73
     0
 74
     0
  7

 75
     0
 76
     0
 77
     2
 78
   300
147
1.0
148
0.0
149
0.0
100
AcDbLayout
  1
Model
 70
     1
 71
     0
 10
0.0
 20
0.0
 11
12.0
 21
9.0
 12
0.0
 22
0.0
 32
0.0
 14
-1.375
 24
-7.25
 34
0.0
 15
1.375
 25
18.17950230588236
 35
31.06400711546745
146
0.0
 13
0.0
 23
0.0
 33
0.0
 16
1.0
 26
0.0
 36
0.0
 17
0.0
 27
1.0
 37
0.0
 76
     0
330
1F
331
29
  0
MLINESTYLE
  5
18
102
{ACAD_REACTORS
330
17
102
}
330
17
100
AcDbMlineStyle
  2
Standard
 70
     0
  3

 62
   256
 51
90.0
 52
90.0
 71
     2
 49
0.5
 62
   256
  6
BYLAYER
 49
-0.5
 62
   256
  6
BYLAYER
  0
ACDBPLACEHOLDER
  5
F
102
{ACAD_REACTORS
330
E
102
}
330
E
  0
VISUALSTYLE
  5
2F
102
{ACAD_REACTORS
330
2A
102
}
330
2A
100
AcDbVisualStyle
  2
2dWireframe
 70
     4
 71
     0
 72
     2
 73
     0
 90
        0
 40
-0.6
 41
-30.0
 62
     5
 63
     7
421
 16777215
 74
     1
 91
        4
 64
     7
 65
   257
 75
     1
175
     1
 42
1.0
 92
        0
 66
   257
 43
1.0
 76
     1
 77
     6
 78
     2
 67
     7
 79
     5
170
     0
171
     0
290
     0
174
     0
 93
        1
 44
0.0
173
     0
291
     0
 45
0.0
1001
ACAD
1000
AcDbSavedByObjectVersion
1070
     0
  0
VISUALSTYLE
  5
31
102
{ACAD_REACTORS
330
2A
102
}
330
2A
100
AcDbVisualStyle
  2
3D Hidden
 70
     6
 71
     1
 72
     2
 73
     2
 90
        0
 40
-0.6
 41
-30.0
 62
     5
 63
     7
421
 16777215
 74
     2
 91
        2
 64
     7
 65
   257
 75
     2
175
     1
 42
40.0
 92
        0
 66
   257
 43
1.0
 76
     1
 77
     6
 78
     2
 67
     7
 79
     3
170
     0
171
     0
290
     0
174
     0
 93
        1
 44
0.0
173
     0
291
     0
 45
0.0
1001
ACAD
1000
AcDbSavedByObjectVersion
1070
     0
  0
VISUALSTYLE
  5
30
102
{ACAD_REACTORS
330
2A
102
}
330
2A
100
AcDbVisualStyle
  2
3dWireframe
 70
     5
 71
     0
 72
     2
 73
     0
 90
        0
 40
-0.6
 41
-30.0
 62
     5
 63
     7
421
 16777215
 74
     1
 91
        4
 64
     7
 65
   257
 75
     1
175
     1
 42
1.0
 92
        0
 66
   257
 43
1.0
 76
     1
 77
     6
 78
     2
 67
     7
 79
     5
170
     0
171
     0
290
     0
174
     0
 93
        1
 44
0.0
173
     0
291
     0
 45
0.0
1001
ACAD
1000
AcDbSavedByObjectVersion
1070
     0
  0
VISUALSTYLE
  5
32
102
{ACAD_REACTORS
330
2A
102
}
330
2A
100
AcDbVisualStyle
  2
Basic
 70
     7
 71
     1
 72
     0
 73
     1
 90
        0
 40
-0.6
 41
-30.0
 62
     5
 63
     7
421
 16777215
 74
     0
 91
        4
 64
     7
 65
   257
 75
     1
175
     1
 42
1.0
 92
        8
 66
     7
 43
1.0
 76
     1
 77
     6
 78
     2
 67
     7
 79
     5
170
     0
171
     0
290
     0
174
     0
 93
        1
 44
0.0
173
     0
291
     1
 45
0.0
1001
ACAD
1000
AcDbSavedByObjectVersion
1070
     0
  0
VISUALSTYLE
  5
36
102
{ACAD_REACTORS
330
2A
102
}
330
2A
100
AcDbVisualStyle
  2
Brighten
 70
    12
 71
     2
 72
     2
 73
     0
 90
        0
 40
-0.6
 41
-30.0
 62
     5
 63
     7
421
 16777215
 74
     1
 91
        4
 64
     7
 65
   257
 75
     1
175
     1
 42
1.0
 92
        8
 66
     7
 43
1.0
 76
     1
 77
     6
 78
     2
 67
     7
 79
     5
170
     0
171
     0
290
     0
174
     0
 93
        1
 44
50.0
173
     0
291
     1
 45
0.0
1001
ACAD
1000
AcDbSavedByObjectVersion
1070
     0
  0
VISUALSTYLE
  5
3A
102
{ACAD_REACTORS
330
2A
102
}
330
2A
100
AcDbVisualStyle
  2
ColorChange
 70
    16
 71
     2
 72
     2
 73
     3
 90
        0
 40
-0.6
 41
-30.0
 62
     5
 63
     8
421
  8421504
 74
     1
 91
        4
 64
     7
 65
   257
 75
     1
175
     1
 42
1.0
 92
        8
 66
     8
424
  8421504
 43
1.0
 76
     1
 77
     6
 78
     2
 67
     7
 79
     5
170
     0
171
     0
290
     0
174
     0
 93
        1
 44
0.0
173
     0
291
     1
 45
0.0
1001
ACAD
1000
AcDbSavedByObjectVersion
1070
     0
  0
VISUALSTYLE
  5
34
102
{ACAD_REACTORS
330
2A
102
}
330
2A
100
AcDbVisualStyle
  2
Conceptual
 70
     9
 71
     3
 72
     2
 73
     0
 90
        0
 40
-0.6
 41
-30.0
 62
     5
 63
     7
421
 16777215
 74
     2
 91
        2
 64
     7
 65
   257
 75
     1
175
     1
 42
40.0
 92
        8
 66
     7
 43
1.0
 76
     1
 77
     6
 78
     2
 67
     7
 79
     3
170
     0
171
     0
290
     0
174
     0
 93
        1
 44
0.0
173
     0
291
     0
 45
0.0
1001
ACAD
1000
AcDbSavedByObjectVersion
1070
     0
  0
VISUALSTYLE
  5
35
102
{ACAD_REACTORS
330
2A
102
}
330
2A
100
AcDbVisualStyle
  2
Dim
 70
    11
 71
     2
 72
     2
 73
     0
 90
        0
 40
-0.6
 41
-30.0
 62
     5
 63
     7
421
 16777215
 74
     1
 91
        4
 64
     7
 65
   257
 75
     1
175
     1
 42
1.0
 92
        8
 66
     7
 43
1.0
 76
     1
 77
     6
 78
     2
 67
     7
 79
     5
170
     0
171
     0
290
     0
174
     0
 93
        1
 44
-50.0
173
     0
291
     1
 45
0.0
1001
ACAD
1000
AcDbSavedByObjectVersion
1070
     0
  0
VISUALSTYLE
  5
39
102
{ACAD_REACTORS
330
2A
102
}
330
2A
100
AcDbVisualStyle
  2
Facepattern
 70
    15
 71
     2
 72
     2
 73
     0
 90
        0
 40
-0.6
 41
-30.0
 62
     5
 63
     7
421
 16777215
 74
     1
 91
        4
 64
     7
 65
   257
 75
     1
175
     1
 42
1.0
 92
        8
 66
     7
 43
1.0
 76
     1
 77
     6
 78
     2
 67
     7
 79
     5
170
     0
171
     0
290
     0
174
     0
 93
        1
 44
0.0
173
     0
291
     1
 45
0.0
1001
ACAD
1000
AcDbSavedByObjectVersion
1070
     0
  0
VISUALSTYLE
  5
2B
102
{ACAD_REACTORS
330
2A
102
}
330
2A
100
AcDbVisualStyle
  2
Flat
 70
     0
 71
     2
 72
     1
 73
     1
 90
        2
 40
-0.6
 41
30.0
 62
     5
 63
     7
421
 16777215
 74
     0
 91
        4
 64
     7
 65
   257
 75
     1
175
     1
 42
1.0
 92
        8
 66
     7
 43
1.0
 76
     1
 77
     6
 78
     2
 67
     7
 79
     5
170
     0
171
     0
290
     0
174
     0
 93
       13
 44
0.0
173
     0
291
     1
 45
0.0
1001
ACAD
1000
AcDbSavedByObjectVersion
1070
     0
  0
VISUALSTYLE
  5
2C
102
{ACAD_REACTORS
330
2A
102
}
330
2A
100
AcDbVisualStyle
  2
FlatWithEdges
 70
     1
 71
     2
 72
     1
 73
     1
 90
        2
 40
-0.6
 41
30.0
 62
     5
 63
     7
421
 16777215
 74
     1
 91
        4
 64
     7
 65
   257
 75
     1
175
     1
 42
1.0
 92
        0
 66
   257
 43
1.0
 76
     1
 77
     6
 78
     2
 67
     7
 79
     5
170
     0
171
     0
290
     0
174
     0
 93
       13
 44
0.0
173
     0
291
     1
 45
0.0
1001
ACAD
1000
AcDbSavedByObjectVersion
1070
     0
  0
VISUALSTYLE
  5
2D
102
{ACAD_REACTORS
330
2A
102
}
330
2A
100
AcDbVisualStyle
  2
Gouraud
 70
     2
 71
     2
 72
     2
 73
     1
 90
        2
 40
-0.6
 41
30.0
 62
     5
 63
     7
421
 16777215
 74
     0
 91
        4
 64
     7
 65
   257
 75
     1
175
     1
 42
1.0
 92
        0
 66
     7
 43
1.0
 76
     1
 77
     6
 78
     2
 67
     7
 79
     5
170
     0
171
     0
290
     0
174
     0
 93
       13
 44
0.0
173
     0
291
     1
 45
0.0
1001
ACAD
1000
AcDbSavedByObjectVersion
1070
     0
  0
VISUALSTYLE
  5
2E
102
{ACAD_REACTORS
330
2A
102
}
330
2A
100
AcDbVisualStyle
  2
GouraudWithEdges
 70
     3
 71
     2
 72
     2
 73
     1
 90
        2
 40
-0.6
 41
30.0
 62
     5
 63
     7
421
 16777215
 74
     1
 91
        4
 64
     7
 65
   257
 75
     1
175
     1
 42
1.0
 92
        0
 66
   257
 43
1.0
 76
     1
 77
     6
 78
     2
 67
     7
 79
     5
170
     0
171
     0
290
     0
174
     0
 93
       13
 44
0.0
173
     0
291
     1
 45
0.0
1001
ACAD
1000
AcDbSavedByObjectVersion
1070
     0
  0
VISUALSTYLE
  5
38
102
{ACAD_REACTORS
330
2A
102
}
330
2A
100
AcDbVisualStyle
  2
Linepattern
 70
    14
 71
     2
 72
     2
 73
     0
 90
        0
 40
-0.6
 41
-30.0
 62
     5
 63
     7
421
 16777215
 74
     1
 91
        4
 64
     7
 65
   257
 75
     7
175
     7
 42
1.0
 92
        8
 66
     7
 43
1.0
 76
     1
 77
     6
 78
     2
 67
     7
 79
     5
170
     0
171
     0
290
     0
174
     0
 93
        1
 44
0.0
173
     0
291
     1
 45
0.0
1001
ACAD
1000
AcDbSavedByObjectVersion
1070
     0
  0
VISUALSTYLE
  5
33
102
{ACAD_REACTORS
330
2A
102
}
330
2A
100
AcDbVisualStyle
  2
Realistic
 70
     8
 71
     2
 72
     2
 73
     0
 90
        0
 40
-0.6
 41
-30.0
 62
     5
 63
     7
421
 16777215
 74
     1
 91
        0
 64
     7
 65
   257
 75
     1
175
     1
 42
1.0
 92
        8
 66
     8
424
  7895160
 43
1.0
 76
     1
 77
     6
 78
     2
 67
     7
 79
     5
170
     0
171
     0
290
     0
174
     0
 93
       13
 44
0.0
173
     0
291
     0
 45
0.0
1001
ACAD
1000
AcDbSavedByObjectVersion
1070
     0
  0
VISUALSTYLE
  5
37
102
{ACAD_REACTORS
330
2A
102
}
330
2A
100
AcDbVisualStyle
  2
Thicken
 70
    13
 71
     2
 72
     2
 73
     0
 90
        0
 40
-0.6
 41
-30.0
 62
     5
 63
     7
421
 16777215
 74
     1
 91
        4
 64
     7
 65
   257
 75
     1
175
     1
 42
1.0
 92
       12
 66
     7
 43
1.0
 76
     1
 77
     6
 78
     2
 67
     7
 79
     5
170
     0
171
     0
290
     0
174
     0
 93
        1
 44
0.0
173
     0
291
     1
 45
0.0
1001
ACAD
1000
AcDbSavedByObjectVersion
1070
     0
  0
ENDSEC
  0
EOF
